Oops, an error
Loading. Please wait.

Have Yourself A Merry Little Christmas bass

247 views 12 this week
no commentswrite comment
1 2 3 4 5
3 more votes to show rating
add to favorites
×
Save as Personal and add changes to this tab that will be seen only by you. Learn more ›
×
You can save this tab as Personal to edit and correct it or add notes. All changes will be seen only by you. Learn more »
launch autoscroll
font size
0
reset
guitar tuner
edit
Autoscroll
slow
fast
+/-
esc
set tempo
stop
Time signature: 6/8

[Intro]
Gb|------------|
Db|------------|
Ab|------------| (x2) (After guitar comes in)
Eb|------------|

[Verse 1]
Have yourself a merry little Christmas
Let your heart be light
From now on our troubles will be out of sight
Gb|------------|
Db|------------|
Ab|------------| (x14)
Eb|------------|

Gb|------------|------------|
Db|------------|------------|
Ab|0-0-0-0-0-0-|5-5-5-5-5-5-| 
Eb|------------|------------|

[Verse 2]
Have yourself a merry little Christmas
Gb|------------|------------|------------|------------|
Db|------------|------------|------------|------------|
Ab|------------|------------|----------3-|5-----5-----|
Eb|3---3---3-2-|0---0---0-3-|5---5---5---|------------|

Make the Yuletide gay
Gb|------------|------------|------------|------------|
Db|------------|------------|------------|------------|
Ab|------------|-----/7-----|----------3-|5-----7-5---|
Eb|3---3---3-2-|0---0-----0-|5---5---5---|----------7-|

From now on our troubles will be miles away
Gb|------------|------------|------------|------------|
Db|------------|------------|------------|------------|
Ab|------------|------------|----------3-|5-5-5-------|
Eb|3---3---3-2-|0---0---0-3-|5---5---5---|------7-7-7-|

Gb|------------|------------|------------|------------|
Db|------------|------------|------------|------------|
Ab|7-7-7-7-7-7-|6-6-6-6-6-6-|5-5-5-5-5-5-|4-4-4-4-4-4-|
Eb|------------|------------|------------|------------|

[Bridge]
Here we are as in olden days 
Gb|------------|------------|------------|------------|
Db|------------|------------|------------|------------|
Ab|3-----------|------------|2-----------|------------|
Eb|------------|------------|------------|------------|

Happy golden days of Yore
Gb|------------|------------|------------|------------|
Db|------------|------------|------------|------------|
Ab|0-----------|------------|------------|------------|
Eb|------------|------------|3-----------|------------|

Faithful friends who are dear to us
Gb|------------|------------|------------|------------|
Db|------------|------------|------------|------------|
Ab|------------|------------|2-----------|------------|
Eb|0-----------|------------|------------|------------|

Gather near to us once more
Gb|------------|------------|------------|------------|
Db|------------|------------|------------|------------|
Ab|0-----------|------------|5-5-5-5-5-5-|5-5-5-5-5-5-|
Eb|------------|------------|------------|------------|

[Verse 4]
Through the years we all will be together
Gb|------------|------------|------------|------------|
Db|------------|------------|------------|------------|
Ab|------------|------------|----------3-|5-----5-----|
Eb|3---3---3-2-|0---0---0-3-|5---5---5---|------------|

If the fates allow
Gb|------------|------------|------------|------------|
Db|------------|------------|------------|------------|
Ab|------------|-----/7-----|----------3-|5-----7-5---|
Eb|3---3---3-2-|0---0-----0-|5---5---5---|----------7-|

Hang a shining star upon the highest bough
Gb|------------|------------|------------|------------|
Db|------------|------------|------------|------------|
Ab|------------|------------|----------3-|5-5-5-------|
Eb|3---3---3-2-|0---0---0-3-|5---5---5---|------7-7-7-|

Gb|------------|------------|------------|------------|
Db|------------|------------|------7-7-7-|------7-7-7-|
Ab|7-7-7-7-7-7-|6-6-6-6-6-6-|5-5-5-------|4-4-4-------|
Eb|------------|------------|------------|------------|

[Outro]
And have yourself a merry little Christmas now
Gb|------------|------------|------------|------------|
Db|------------|------------|------------|------------|
Ab|3-----------|------------|------------|------------|
Eb|------------|------------|------------|------------|

Gb|------------|------------|------------|------------|
Db|------------|------------|------------|------------|
Ab|------------|------------|0-0-0-0-0-0-|5-5-5-5-5-5-|
Eb|3-3-3-3-3-3-|0-0-0-0-0-0-|------------|------------|

Gb|------------|
Db|5-----------|
Ab|------------|
Eb|------------|


************************************

| /  Slide up

************************************

            
            
Suggest correction
Creating personal tab
Creating personal tab
You can edit any tab online and save it as your Personal.

You can edit, replace or remove any tab part or add personal notes – all changes will be seen only by you.

Personal tabs can be accessed anytime from any device, even offline.
Learn more »
Give kudos to tab author, rate the tab!
1 2 3 4 5
comments
print report bad tab
guest
You may want to rate the tab now too:
select rating
Wanna post a correction for this tab? Suggest correction