Oops, an error
Loading. Please wait.

Hello Mcfly tab

version 2
version 2

Whole song

Interactive

76 views 1 this week
1 commentread comment
1 2 3 4 5
2 more votes to show rating
add to favorites
×
Save as Personal and add changes to this tab that will be seen only by you. Learn more ›
×
You can save this tab as Personal to edit and correct it or add notes. All changes will be seen only by you. Learn more »
launch autoscroll
font size
0
reset
how to read this tab
guitar tuner
edit
Autoscroll
slow
fast
+/-
esc
set tempo
stop
-------------------------------------------------------------------------------
                             HELLO MCFLY - Relient K
-------------------------------------------------------------------------------

Tuning: Standard

Intro
e|---------------------------------------------------------------------------|
B|---------------------------------------------------------------------------|
G|6-8-4---6-8-4---6-8-4---6-8-4---6-8-4---6-8-11-----------------------------|
D|x-x-x---x-x-x---x-x-x---x-x-x---x-x-x---x-x-x------------------------------|
A|4-6-2---4-6-2---4-6-2---4-6-2---4-6-2---4-6-9------------------------------|
E|---------------------------------------------------------------------------|

Verse
2x
e|---------------------------------------------------------------------------|
B|---------------------------------------------------------------------------|
G|444444444444---------------------------------------------------------------|
D|444444444444-222222222222-444444444444-222222------------------------------|
A|222222222222-222222222222-444444444444-222222------------------------------|
E|-------------000000000000-222222222222-000000------------------------------|

Pre-chorus
e|---------------------------------------------------------------------------|
B|---------------------------------------------------------------------------|
G|4-----------------------------------4--------------------------------------|
D|4-----------4-----------2-----------4--------------------------------------|
A|2-----------4-----------2-----------2--------------------------------------|
E|------------2-----------0--------------------------------------------------|

e|---------------------------------------------------------------------------|
B|---------------------------------------------------------------------------|
G|------------------------------------4--------------------------------------|
D|4---x-x-x-x-4-----------2-----------4-----------4--------------------------|
A|4---x-x-x-x-4-----------2-----------2-----------4--------------------------|
E|2---x-x-x-x-2-----------0-----------------------2--------------------------|

Chorus
e|---------------------------------------------------------------------------|
B|---------------------------------------------------------------------------|
G|4-4-4---44------------6-6-6---66------------4-4-4------6-6-6---------------|
D|4-4-4---44-2-2-2---22-6-6-6---66-4-4-4------4-4-4------6-6-6------4--------|
A|2-2-2---22-2-2-2---22-4-4-4---44-4-4-4------2-2-2------4-4-4------4--------|
E|-----------0-0-0---00------------2-2-2----------------------------2--------|

Interlude
e|---------------------------------------------------------------------------|
B|---------------------------------------------------------------------------|
G|6-8-4---6-8-4---6-8-4---6-8-4----------------------------------------------|
D|x-x-x---x-x-x---x-x-x---x-x-x----------------------------------------------|
A|4-6-2---4-6-2---4-6-2---4-6-2----------------------------------------------|
E|---------------------------------------------------------------------------|

Verse

Pre-chorus

Chorus

Ending
e|---------------------------------------------------------------------------|
B|---------------------------------------------------------------------------|
G|6-8-4---6-8-4---6-8-4---6-8-4---6-8-4---6-8-4---6-8-4----------------------|
D|x-x-x---x-x-x---x-x-x---x-x-x---x-x-x---x-x-x---x-x-x----------------------|
A|4-6-2---4-6-2---4-6-2---4-6-2---4-6-2---4-6-2---4-6-2----------------------|
E|---------------------------------------------------------------------------|


************************************

| x   Mute note

************************************
Suggest correction
Creating personal tab
Creating personal tab
You can edit any tab online and save it as your Personal.

You can edit, replace or remove any tab part or add personal notes – all changes will be seen only by you.

Personal tabs can be accessed anytime from any device, even offline.
Learn more »
Give kudos to tab author, rate the tab!
1 2 3 4 5
comments
print report bad tab
1 comment total.
0 reply
thecomrades420 10 Jun 13, 2016 02:03 PM

For the ending and intro riff, I think this sounds better. I don't know if it's correct or not but it works for me and my band:
e---------------
B---------------
G-8-9-11---8-9-4
D-X-X-X----X-X-X
A-6-7-9----6-7-2
E---------------

Repeat as necessary

guest
You may want to rate the tab now too:
select rating
Wanna post a correction for this tab? Suggest correction