Oops, an error
Loading. Please wait.

I Need You intro tab

version 1
version 1

Intro

Whole song

Interactive

5,593 views 3 this week
2 commentsread comments
1 2 3 4 5
x 3
add to favorites
×
Save as Personal and add changes to this tab that will be seen only by you. Learn more ›
×
You can save this tab as Personal to edit and correct it or add notes. All changes will be seen only by you. Learn more »
launch autoscroll
font size
0
reset
how to read this tab
guitar tuner
edit
Autoscroll
slow
fast
+/-
esc
set tempo
stop
-------------------------------------------------------------------------------
                             I NEED YOU INTRO- Relient K
-------------------------------------------------------------------------------
Tabbed by: guitar-pro_92 a.k.a. Colby Crosby
Email: guitar-pro_92@hotmail.com

Tuning:Drop Db


Intro

tuning drop Db


harmonics and noise
\/   \/   \/    \/


Eb|--X--0-----<15>---<13>~-|---------------------------------|-------------------------------|
Bb|--X--0-----<15>---<13>~-|---------------------------------|--6-6-6-6-6--------------------|
Gb|--X--0--<15>------------|---------------------------------|--9-9-9-9-9--------------------|
Db|--X--0--<15>------------|--0-0-0~--------------------0----|--------------------------0~---|
Ab|--X--0------------------|--0-0-0~--------------------0----|--------------------------0~---|
Eb|--X--0------------------|--0-0-0~----------7--9--11b-0----|-------------7---9---11b--0~---|x3

then
|----------------------------------------------------------------------------|
|----------------------------------------------------------------------------|
|----------------------------------------------------------------------------|
|--0-0-0~--0-0-0~------------------------------------------------------------|
|--0-0-0~--0-0-0~------------------------------------------------------------|
|--0-0-0~--0-0-0~------------------------------------------------------------|


will try to get the rest of the song up by the end of the month


the chorus is this though for guitar 2 and 1

Guitar 1
Eb|----------------------------------------------------------------------------|
Bb|----------------------------------------------------------------------------|
Gb|--14-------10-------7------5------------------------------------------------|
Db|---X-------X--------X------X------------------------------------------------|
Ab|--12(x16)--8-(x16)--5(x16)-3(x16)-------------------------------------------|
Eb|----------------------------------------------------------------------------|

Guitar 2

Eb|----------------------------------------------------------------------------|
Bb|----------------------------------------------------------------------------|
Gb|----------------------------------------------------------------------------|
Db|--0-------3---------8--------10---------------------------------------------|
Ab|--0-------3---------8--------10---------------------------------------------|
Eb|--0(x16)--3(x16)----8(x16)---10(x16)----------------------------------------|

| /  slide up
| \  slide down
| h  hammer-on
| p  pull-off
| ~  vibrato
| <>  harmonic
| x  Mute note
===============================================================================

            
            
Suggest correction
Creating personal tab
Creating personal tab
You can edit any tab online and save it as your Personal.

You can edit, replace or remove any tab part or add personal notes – all changes will be seen only by you.

Personal tabs can be accessed anytime from any device, even offline.
Learn more »
Give kudos to tab author, rate the tab!
1 2 3 4 5
comments
print report bad tab
2 comments total.
+1 reply
Hops44 183 Apr 28, 2007 07:57 PM

You have three different tunings listed, pick one.

0 reply
Dash Rip Rock 20 Apr 08, 2009 07:07 PM

C# tuning is the same as Db tuning, but in the actual song he has Eb/D# tuning...but the song is in C# (according to what i can hear)

guest
You may want to rate the tab now too:
select rating
Wanna post a correction for this tab? Suggest correction