Oops, an error
Loading. Please wait.

Look On Up tab

version 2
version 2

Whole song

361 views 3 this week
1 commentread comment
1 2 3 4 5
2 more votes to show rating
add to favorites
×
Save as Personal and add changes to this tab that will be seen only by you. Learn more ›
×
You can save this tab as Personal to edit and correct it or add notes. All changes will be seen only by you. Learn more »
launch autoscroll
font size
0
reset
how to read this tab
guitar tuner
edit
Autoscroll
slow
fast
+/-
esc
set tempo
stop
Author
Difficulty
[Intro]

e|---------------------------------------------------------------------------------------------------------|
b|------------4-----------4------------4------------------------------4------------4-----------4-----------|
g|-----4------------4-----------4-----------4------4----------4------------4------------4------------4---4-|
D|---------------------------------------------------------------------------------------------------------|
A|---------------------------------------------------------------------------------------------------------|
E|--4-----4-----4-----4-----4-----4-----4-----4----------2-----2-----2-----2-----2-----2-----2-----2-------|


[Verse]

e|----------------------------------------------------|---------------------------------------------------|
B|------------4-----------4------------4------------4-|------------4-----------4-----------4------------4-|
G|-----4------------4------------4-----------4--------|-----4------------4-----------4------------4-------|
D|----------------------------------------------------|---------------------------------------------------|
A|--2-----2-----2-----2-----2-----2-----2-----2-------|---------------------------------------------------|
E|----------------------------------------------------|--0-----0-----0-----0-----0-----0-----0-----0------|
          I remember when a photograph was worth,                                          a thousand

e|-----------------------------------------------------|---------------------------------------------------|
B|------------4-----------4------------4-------------4-|------------4-----------4------------4-----------4-|
G|------4-----------4------------4-----------4---------|-----4------------4-----------4------------4-------|
D|-----------------------------------------------------|---------------------------------------------------|
A|-----------------------------------------------------|---------------------------------------------------|
E|--4-----4-----4-----4-----4-----4-----4-----4--------|--2-----2-----2-----2-----2-----2-----2-----2------|
  words.                                     A thousand words.

e|----------------------------------------------------|---------------------------------------------------|
B|------------4-----------4------------4------------4-|------------4-----------4-----------4------------4-|
G|-----4------------4------------4-----------4--------|-----4------------4-----------4------------4-------|
D|----------------------------------------------------|---------------------------------------------------|
A|--2-----2-----2-----2-----2-----2-----2-----2-------|---------------------------------------------------|
E|----------------------------------------------------|--0-----0-----0-----0-----0-----0-----0-----0------|
               Now a thousand pictures come my way,                every day.                     And I 
  
e|-----------------------------------------------------|---------------------------------------------------|
B|------------4-----------4------------4-------------4-|------------4-----------4------------4-----------4-|
G|------4-----------4------------4-----------4---------|-----4------------4-----------4------------4-------|
D|-----------------------------------------------------|---------------------------------------------------|
A|-----------------------------------------------------|---------------------------------------------------|
E|--4-----4-----4-----4-----4-----4-----4-----4--------|--2-----2-----2-----2-----2-----2-----2-----2------|
   like them all the same, but they can’t           take my breath away.

e|----------------------------------------------------|---------------------------------------------------|
B|------------4-----------4------------4------------4-|------------4-----------4-----------4------------4-|
G|-----4------------4------------4-----------4--------|-----4------------4-----------4------------4-------|
D|----------------------------------------------------|---------------------------------------------------|
A|--2-----2-----2-----2-----2-----2-----2-----2-------|---------------------------------------------------|
E|----------------------------------------------------|--0-----0-----0-----0-----0-----0-----0-----0------|
            I’m fighting the temptation not to look.                                        But I'm still

e|-----------------------------------------------------|---------------------------------------------------|
B|------------4-----------4------------4-------------4-|------------4-----------4------------4-----------4-|
G|------4-----------4------------4-----------4---------|-----4------------4-----------4------------4-------|
D|-----------------------------------------------------|---------------------------------------------------|
A|-----------------------------------------------------|---------------------------------------------------|
E|--4-----4-----4-----4-----4-----4-----4-----4--------|--2-----2-----2-----2-----2-----2-----2-----2------|
 leafing through the pages like the                     world’s my open book.


e|----------------------------------------------------|---------------------------------------------------|
B|------------4-----------4------------4------------4-|------------4-----------4-----------4------------4-|
G|-----4------------4------------4-----------4--------|-----4------------4-----------4------------4-------|
D|----------------------------------------------------|---------------------------------------------------|
A|--2-----2-----2-----2-----2-----2-----2-----2-------|---------------------------------------------------|
E|----------------------------------------------------|--0-----0-----0-----0-----0-----0-----0-----0------|
               Why don’t I got something else to do?                                       Feeling 

e|-----------------------------------------------------|---------------------------------------------------|
B|------------4-----------4------------4-------------4-|------------4-----------4------------4-----------4-|
G|------4-----------4------------4-----------4---------|-----4------------4-----------4------------4-------|
D|-----------------------------------------------------|---------------------------------------------------|
A|-----------------------------------------------------|---------------------------------------------------|
E|--4-----4-----4-----4-----4-----4-----4-----4--------|--2-----2-----2-----2-----2-----2-----2-----2------|
  trapped behind the viewfinder to                      share it all with you.               And that's

e|---------------------------------------------------|
b|------------4-----------4-----------4------------4-|
g|-----4------------4-----------4------------4-------|
D|---------------------------------------------------|
A|---------------------------------------------------|
E|--0-----0-----0-----0-----0-----0-----0-----0------|                
   not what it’s about, 

        Abm              F#
I’m so tired of missing out.


          E           F#            Abm                          B
I look on up, to the sky.  I wonder why I put a filter between beauty and my eyes.
          E              F#                Abm                         B
I look on up, into your eyes.  It’s time I put down my devices and I start to live my life.
          E             F#               
I look on up, I look on up, to the sky.

e|---------------------------------------------------------------------------------------------------------|
b|------------4------------4-----------4------------------------------4------------4------------4----------|
g|-----4------------4------------4-----------4------4---------4------------4------------4-----------4----4-|
D|---------------------------------------------------------------------------------------------------------|
A|--2-----2-----2-----2-----2-----2-----2-----2----------2-----2-----2-----2-----2-----2-----2-----2-------|
E|---------------------------------------------------------------------------------------------------------|
         

Riff 1                                   Riff 2         Riff 3      Riff 4
Have you ever tried to photograph the moon?  Well I have too, I have too.
Riff 1                                   Riff 2        Riff 3                         Riff 4
Find it funny how it never turns out right.  It’s like someone poked a pinhole in the canvas of the night.
          Riff 2                        Abm              F#
And that’s not what it’s about, I’m so tired of missing out.


          E           F#            Abm                          B
I look on up, to the sky.  I wonder why I put a filter between beauty and my eyes.
          E              F#                Abm                         B
I look on up, into your eyes.  It’s time I put down my devices and I start to live my life.
          E              F#
I look on up, I look on up.


              E                                              Abm                       F#
Cause it’s a Nick Drake Pink Moon seeing the pines, in the Pacific North West for the first time.
            E                          E
I cannot believe my eyes.  Yeah I’m singing out loud in the middle of the night,
       Abm         F#                 E                     F#
On a balcony in Brisbane looking up into the sky, into the sky.
            Abm                                 B
It’s time I put down my devices and I start to live my life.


E   F#   Abm                    E     F#   Abm


           E          F#            Abm                          B
I look on up, to the sky.  I wonder why I put a filter between beauty and my eyes.
           E             F#                Abm                         B
I look on up, into your eyes.  It’s time I put down my devices and I start to live my life.
           E            F#
I look on up, I look on up, to the sky.

e|---------------------------------------------------------------------------------------------------------|
b|------------4------------4-----------4------------------------------4------------4------------4----------|
g|-----4------------4------------4-----------4------4---------4------------4------------4-----------4----4-|
D|---------------------------------------------------------------------------------------------------------|
A|--2-----2-----2-----2-----2-----2-----2-----2----------2-----2-----2-----2-----2-----2-----2-----2-------|
E|---------------------------------------------------------------------------------------------------------|


Riff 1                                   Riff 2         Riff 3        F#
Have you ever tried to photograph the moon?  Well I have too, I have too.



Riff 1
e|----------------------------------------------------|
b|------------4-----------4------------4------------4-|
g|-----4------------4------------4-----------4--------|
D|----------------------------------------------------|
A|--2-----2-----2-----2-----2-----2-----2-----2-------|
E|----------------------------------------------------|

Riff 2
e|---------------------------------------------------|
b|------------4-----------4-----------4------------4-|
g|-----4------------4-----------4------------4-------|
D|---------------------------------------------------|
A|---------------------------------------------------|
E|--0-----0-----0-----0-----0-----0-----0-----0------|

Riff 3
e|-----------------------------------------------------|
b|------------4-----------4------------4-------------4-|
g|------4-----------4------------4-----------4---------|
D|-----------------------------------------------------|
A|-----------------------------------------------------|
E|--4-----4-----4-----4-----4-----4-----4-----4--------|

Riff 4
e|-----------------------------------------------------|
b|------------4-----------4------------4-------------4-|
g|-----4------------4-----------4------------4---------|
D|-----------------------------------------------------|
A|-----------------------------------------------------|
E|--2-----2-----2-----2-----2-----2-----2-----2--------|


            
            
Suggest correction
Creating personal tab
Creating personal tab
You can edit any tab online and save it as your Personal.

You can edit, replace or remove any tab part or add personal notes – all changes will be seen only by you.

Personal tabs can be accessed anytime from any device, even offline.
Learn more »
Give kudos to tab author, rate the tab!
1 2 3 4 5
comments
print report bad tab
1 comment total.
0 reply
christine.dottl 90 Jul 21, 2017 01:14 AM

Dude this tab is AMAZING! Tbh it does make my pinkie hurt a lot but it's worth it. Thank you so much for the tab!

guest
You may want to rate the tab now too:
select rating
Wanna post a correction for this tab? Suggest correction