Oops, an error
Loading. Please wait.

Lost Boy bass

1,344 views 1 this week
3 commentsread comments
1 2 3 4 5
x 5
add to favorites
×
Save as Personal and add changes to this tab that will be seen only by you. Learn more ›
×
You can save this tab as Personal to edit and correct it or add notes. All changes will be seen only by you. Learn more »
launch autoscroll
font size
0
reset
guitar tuner
edit
Autoscroll
slow
fast
+/-
esc
set tempo
stop
Author
Difficulty
Intro and verse:

G-------------------------------------|
D--------------------2-2---2----------|
A---4-4----4-2-2---2---------0-0-0-2--|
E-------------------------------------|  x4

G------------------------------|
D--------------------2-2---2---|
A---4-4----4-2-2---2---------0-|
E------------------------------|

Chorus

G--------------------------------------------------------------------|
D--2222222222222222--------------------------------22222222----------|
A------------------2222222222222222------------------------22222222--|
E----------------------------------4444444455555555------------------| x2

G-------|
D-2-----|
A-------|
E-------|

            
            
Suggest correction
Creating personal tab
Creating personal tab
You can edit any tab online and save it as your Personal.

You can edit, replace or remove any tab part or add personal notes – all changes will be seen only by you.

Personal tabs can be accessed anytime from any device, even offline.
Learn more »
comments
print report bad tab
3 comments total.
0 reply
Jcbrown29 10 Oct 28, 2014 06:26 PM

Awesome Song. Awesome band. Awesome tab.

0 reply
supadonut 186 Dec 11, 2014 02:06 PM

Chorus should be this instead:
G--------------------------------------------------------------------|
D--2222222222222222--------------------------------------------------|
A------------------2222222222222222----------------4444444422222222--|
E----------------------------------4444444455555555------------------| x2

0 reply
jamesjwcarmack 10 Aug 19, 2015 05:01 PM

Chorus should be this instead:
G--------------------------------------------------------------------|
D--2222222222222222--------------------------------------------------|
A------------------2222222222222222----------------4444444422222222--|
E----------------------------------4444444455555555------------------| x2

guest
You may want to rate the tab now too:
select rating
Wanna post a correction for this tab? Suggest correction