Oops, an error
Loading. Please wait.

Merry Christmas Heres To Many More bass

34 views 1 this week
no commentswrite comment
1 2 3 4 5
3 more votes to show rating
add to favorites
×
Save as Personal and add changes to this tab that will be seen only by you. Learn more ›
×
You can save this tab as Personal to edit and correct it or add notes. All changes will be seen only by you. Learn more »
launch autoscroll
font size
0
reset
guitar tuner
edit
Autoscroll
slow
fast
+/-
esc
set tempo
stop
Author
Difficulty
Time signature: 2/4
(Sleigh bell intro plays quarter notes)

[Verse 1]
I made it through the year and I did not even collapse...
G|--------|--------|--------|--------|--------|--------|--------|--------|
D|--------|--------|--------|--------|--------|--------|--------|--------|
A|2-------|5-------|--------|--------|2-------|--------|--------|--------| x2
E|--------|--------|3-------|--------|--------|2-------|3-------|--------|

With tired eyes I stumble back to bed...
G|--------|--------|--------|--------|--------|--------|--------|--------|--------|--------|
D|--------|9-------|--------|--------|--------|--------|--------|--------|--------|--------|
A|12------|--------|10------|--------|12------|9-------|10------|--------|--------|--------|
E|--------|--------|--------|--------|--------|--------|--------|--------|5-5-5-5-|5-5-5---|

[Chorus 1]
So look at me now...
G|--------|--------|--------|--------|--------|--------|--------|--------|
D|--------|--------|--------|--------|--------|--------|--------|--------|
A|----5---|----5---|----9---|----9---|--------|--------|--------|--------|
E|3-------|3-------|7-------|7-------|5------5|5-----5-|3------3|3-----3-|

And I don't know how...
G|--------|--------|--------|--------|--------|--------|--------|--------|--------|--------|
D|--------|--------|--------|--------|--------|--------|--------|--------|--------|--------|
A|----5---|----5---|----9---|----9---|--------|--------|7------7|7---7---|--------|--------|
E|3-------|3-------|7-------|7-------|5------5|5---5---|--------|--------|3-------|--------|

[Interlude]
G|--------|--------|--------|--------|--------|--------|--------|--------|
D|--------|--------|--------|--------|--------|--------|--------|--------|
A|2-------|5-------|--------|--------|2-------|--------|--------|--------| 
E|--------|--------|3-------|--------|--------|2-------|3-----3-|--------|

[Verse 2]
It always hurt to be all by myself this time of year...
G|--------|--------|--------|--------|--------|--------|--------|--------|
D|--------|--------|--------|--------|--------|--------|--------|--------|
A|2-------|5-------|--------|--------|2-------|--------|--------|--------| x2
E|--------|--------|3-------|--------|--------|2-------|3-------|--------|

I look towards the east and see a star...
G|--------|--------|--------|--------|--------|--------|--------|--------|--------|--------|
D|--------|9-------|--------|--------|--------|--------|--------|--------|--------|--------|
A|12------|--------|10------|--------|12------|9-------|10------|--------|--------|--------|
E|--------|--------|--------|--------|--------|--------|--------|--------|5-5-5-5-|5-5-5-5-|

[Chorus 2]
So look at me now...
G|--------|--------|--------|--------|--------|--------|--------|--------|
D|--------|--------|--------|--------|--------|--------|--------|--------|
A|----5---|----5---|----9---|----9---|----7---|----7---|----5---|----0-2-|
E|3-------|3-------|7-------|7-------|5-------|5-------|3-------|3-3-----|

And I don't know how...
G|--------|--------|--------|--------|--------|--------|--------|--------|--------|--------|
D|--------|--------|--------|--------|--------|----7---|--------|--------|--------|--------|
A|----5---|----5---|----9---|----9---|----7---|7-5---5-|7------7|7---7---|10---10-|10--10--|
E|3-------|3-------|7-------|7-------|5-------|--------|--------|--------|--------|--------|

[Bridge]
Deck the halls with mistletoe...
G|--------|--------|--------|--------|--------|--------|--------|--------|
D|--------|--------|--------|--------|--------|--------|--------|--------|
A|5---5-5-|--------|7---7-7-|--------|7---7-7-|--------|--------|--------|
E|--------|5---5---|--------|7---7---|--------|2---2---|3---3-3-|5---5---|

Strike up the band and play the tune...
G|--------|--------|--------|--------|--------|--------|--------|--------|
D|--------|--------|--------|--------|--------|--------|--------|--------|
A|5---5-5-|--------|7---7-7-|--------|7---7-7-|--------|--------|--------|
E|--------|5---5---|--------|7---7---|--------|2---2-2-|3---3-3-|5-5-5-5-|

[Outro]
Fa la la la...
G|--------|--------|--------|--------|--------|--------|--------|--------|
D|--------|--------|--------|--------|--------|--------|--------|--------|
A|--------|--------|--------|--------|--------|--------|5---5---|5---5---|
E|5---5---|5---5---|3---3---|3---3---|3---3---|3---3---|--------|--------|

Singing merry Christmas, here's to many more...
G|--------|--------|--------|--------|--------|
D|--------|--------|--------|--------|--------|
A|--------|--------|--------|--------|5-------|
E|66666666|66666666|33333333|33333333|--------|
(Slowing down...)

************************************

| /   Slide up

************************************

            
            
Suggest correction
Creating personal tab
Creating personal tab
You can edit any tab online and save it as your Personal.

You can edit, replace or remove any tab part or add personal notes – all changes will be seen only by you.

Personal tabs can be accessed anytime from any device, even offline.
Learn more »
Give kudos to tab author, rate the tab!
1 2 3 4 5
comments
print report bad tab
guest
You may want to rate the tab now too:
select rating
Wanna post a correction for this tab? Suggest correction