Oops, an error
Loading. Please wait.

Merry Christmas Heres To Many More intro tab

version 1
version 1

Intro

Whole song

7,411 views 1 this week
3 commentsread comments
1 2 3 4 5
x 4
add to favorites
×
Save as Personal and add changes to this tab that will be seen only by you. Learn more ›
×
You can save this tab as Personal to edit and correct it or add notes. All changes will be seen only by you. Learn more »
launch autoscroll
font size
0
reset
how to read this tab
guitar tuner
edit
Autoscroll
slow
fast
+/-
esc
set tempo
stop
-------------------------------------------------------------------------------
               Merry Christmas Here's to Many More - Relient K
-------------------------------------------------------------------------------
Tabbed by: mastermoo420

Tuning: Capo 2
   Am                  C                   Am
f#|------------------|------------------|-------------0--|-----------------------|
C#|-------------1----|-------------1----|----------1-----|-----------------------|
A |----------2-------|----------0-------|-----0h2--------|-------2---------0-----|
E |-----0h2----------|-----0h2----------|--2-------------|--3---------2----------|
B |--0------------0--|--3------------3--|----------------|-----------------------|
F#|------------------|------------------|----------------|-----------------------|
     Am                 Em
f#|------------------|------------------|--------------------|-----------------|
C#|-------------1----|------------------|--------------------|-----------------|
A |----------2-------|-------------0----|--------------------|--2--------------|
E |-----0h2----------|----------2-------|--------------------|-----------------|
B |--0------------0--|-----0h2----------|-----------2--------|-----------------|
F#|------------------|--0------------0--|--0-----------------|-----------------|

Notes:
- I tried my best to have the spacing between the numbers make a little more sense but 
get it correctly, listen to the song and play with it.
- Many thanks to the guy who made the chords for the whole song. The chords he put for 
intro helped me for the first half of the first four measures :P

| h  hammer-on
===============================================================================

            
            
Suggest correction
Creating personal tab
Creating personal tab
You can edit any tab online and save it as your Personal.

You can edit, replace or remove any tab part or add personal notes – all changes will be seen only by you.

Personal tabs can be accessed anytime from any device, even offline.
Learn more »
comments
print report bad tab
3 comments total.
0 reply
deet 64 Sep 11, 2008 05:34 PM

My only suggestion is change the first 2 to a 3 on the 3rd measure. sounds much better

0 reply
Fun Pack 16 10 Dec 02, 2008 01:24 PM

In the seventh measure, there are only two notes. I'm pretty sure each note is supposed to be one fret higher. Instead of open on E and 2 on A, try 1 on E and 3 on A.

0 reply
ncroxalot4 215 Aug 10, 2009 06:42 PM

i agree with funpack it should be with his corrections

Tuning: Capo 2
Am C Fmaj7
f#|------------------|------------------|-------------0--|-----------------------|
C#|-------------1----|-------------1----|----------1-----|-----------------------|
A |----------2-------|----------0-------|-----0h2--------|-------2---------0-----|
E |-----0h2----------|-----0h2----------|--3-------------|--3---------2----------|
B |--0------------0--|--3------------3--|----------------|-----------------------|
F#|------------------|------------------|----------------|-----------------------|
Am Em F
f#|------------------|------------------|----------------|
C#|-------------1----|------------------|----------------|
A |----------2-------|-------------0----|-----------2----|
E |-----0h2----------|----------2-------|----------------|
B |--0------------0--|-----0h2----------|------3---------|
F#|------------------|--0------------0--|--1-------------|

but this is a great tab so kudos to you mastermoo

guest
Wanna post a correction for this tab? Suggest correction