Oops, an error
Loading. Please wait.

More Than Useless tab

version 3
version 3

Whole song

Interactive

1,170 views 1 this week
1 commentread comment
1 2 3 4 5
3 more votes to show rating
add to favorites
×
Save as Personal and add changes to this tab that will be seen only by you. Learn more ›
×
You can save this tab as Personal to edit and correct it or add notes. All changes will be seen only by you. Learn more »
launch autoscroll
font size
0
reset
how to read this tab
guitar tuner
edit
Autoscroll
slow
fast
+/-
esc
set tempo
stop
Relient K - More Than Useless
Tuned Down 1/2 step
tab by chj

Eb|--------------------------------------|	
Bb|-4-4-4--5-5-5---------2-2-2--4-4-4-4--|	
Gb|-4-------------4-4-4---------4--------|	
Db|--------------------------------------| x4	Intro	
Ab|--------------------------------------|
Eb|--------------------------------------|	

Eb|----------------------|
Bb|----------------------|
Gb|-6--------------------|
Db|-6-(x6)-7------2------| x2
Ab|-4------7-(x4)-2-(x8)-|
Eb|--------5------0------|

Eb|--------------------------|
Bb|--------------------------|
Gb|----------6---------------|
Db|-2--------6-(x8)--7-------| x2 all palm muted
Ab|-2-(x16)--4-------7-(x8)--|
Eb|-0----------------5-------|


Eb|-----------------------------------|
Bb|-----------------------------------|
Gb|----------6--------2-------4-------|
Db|-2--------6-(x4)---2-(x3)--4-(x3)--| x2   
Ab|-2-(x8)---4--------0---------------|
Eb|-0---------------------------------|


Eb|--------------------------------|
Bb|--------------------------------|
Gb|---------4-------6--------------| x2 all palm muted
Db|-2-------4-------6-------7------|
Ab|-2-(x8)--2-(x8)--4-(x8)--7-(x8)-|
Eb|-0-----------------------5------|


Eb|------------------------|
Bb|------------------------|
Gb|----------6-------------|
Db|--6-------6-------7--6--|
Ab|--6-(x4)--4-(x2)--7--7--|
Eb|--4---------------------|


Eb|-----------------------------------|		
Bb|--------------------------------5--|		
Gb|---------2-------6-------2------2--|		
Db|-2-------2-(x8)--6-(x8)--2-(x5)-2--| Rhythm	
Ab|-2-(x8)--0-------4-------0------0--| Guitar	
Eb|-0---------------------------------|		

Eb|-------------|
Bb|-------------|
Gb|-(0)1--------|
Db|-------4--2--|(x3)Solo Guitar - can be combined with the Rhythm
Ab|-------------|Guitar part and played by a single guitarist,
Eb|-------------|just play Rhythm Guitar (x7) instead of (x8)


Eb|-----------------------|
Bb|-----------------------|
Gb|-6---------------------|
Db|-6-(x6)-7------2-------|
Ab|-4------7-(x4)-2-(x8)--|
Eb|--------5------0-------|


Eb|--------------------------|
Bb|--------------------------|
Gb|----------6---------------|
Db|-2--------6-(x8)--7-------| (x2) all palm muted
Ab|-2-(x16)--4-------7-(x8)--|
Eb|-0----------------5-------|


Eb|-----------------------------------|
Bb|-----------------------------------|
Gb|----------6--------2-------4-------|
Db|-2--------6-(x4)---2-(x3)--4-(x3)--| (x2)
Ab|-2-(x8)---4--------0---------------|
Eb|-0---------------------------------|


Eb|-------12--------|
Bb|----12----12-12--|
Gb|--9--------------|
Db|-----------------|
Ab|-----------------| (x8)
Eb|-----------------|


Eb|------------------------|
Bb|------------------------|
Gb|----------6-------------|
Db|--6-------6-------7--6--|
Ab|--6-(x4)--4-(x2)--7--7--|
Eb|--4---------------------|


Eb|----------------------------------|
Bb|----------------------------------|
Gb|---------2-------6-------2--------|
Db|-2-------2-(x8)--6-(x8)--2-(x11)--| Rhythm
Ab|-2-(x8)--0-------4-------0--------| Guitar
Eb|-0--------------------------------|


Eb|-----------------------------------|
Bb|--------------------------------5--|
Gb|---------5-------6-------2------2--|	
Db|-2-------6-(x8)--6-(x12)-2-(x5)-2--| Rhythm
Ab|-2-(x8)--6-------4-------0------0--| Guitar
Eb|-0-------4-------------------------|


Eb|--------------------------------------|
Bb|-4-4-4--5-5-5---------2-2-2--4-4-4-4--|
Gb|-4-------------4-4-4---------4--------|
Db|--------------------------------------|(x6)
Ab|--------------------------------------|
Eb|--------------------------------------|

Eb|-------------------------------------------------------------|
Bb|-------------------------------------------------------------|
Gb|-2------6------2----------------2------6-------------4-------|
Db|-2-(x8)-6-(x8)-2-(x8)-2---------2-(x8)-6-(x8)-2-(x8)-4-(x8)--|
Ab|-0------4------0------2-(x8)----0------4------2------2-------|
Eb|----------------------0-----------------------0--------------|


Eb|-------------------------------------------------------------------|
Bb|-------------------------------------------------------------------|
Gb|-2------4------6------4---------2------4------6---------4--2--6--4-|
Db|-2-(x4)-4-(x4)-6-(x4)-4-(x4)----2-(x8)-4-(x8)-6-(x8)----4--2--6--4-|
Ab|-0------2------4------2---------0------2------4--------------------|
Eb|-------------------------------------------------------------------|


Eb|----------------------------------|
Bb|----------------------------------|
Gb|---------2-------6-------2--------|
Db|-2-------2-(x8)--6-(x8)--2-(x11)--| Rhythm
Ab|-2-(x8)--0-------4-------0--------| Guitar
Eb|-0--------------------------------|

Eb|---------------------------------|
Bb|---------------------------------|
Gb|---------5-------6-------2-------|
Db|-2-------6-(x8)--6-(x16)-2-(x16)-| Rhythm
Ab|-2-(x8)--6-------4-------0-------| Guitar
Eb|-0-------4-----------------------|


Eb|-------|     Eb|----|
Bb|-------|     Bb|-5--|
Gb|----2--|     Gb|-4--|
Db|-2--2--|     Db|-2--|
Ab|-2--0--|(x4) Ab|-2--|
Eb|-0-----|     Eb|-0--|

            
            
Suggest correction
Creating personal tab
Creating personal tab
You can edit any tab online and save it as your Personal.

You can edit, replace or remove any tab part or add personal notes – all changes will be seen only by you.

Personal tabs can be accessed anytime from any device, even offline.
Learn more »
Give kudos to tab author, rate the tab!
1 2 3 4 5
comments
print report bad tab
1 comment total.
0 reply
Soccergeek4jc 221 Aug 21, 2009 10:59 PM

I can't follow this at all. Could you label parts, like Verse Chorus etc?

guest
Wanna post a correction for this tab? Suggest correction