Oops, an error
Loading. Please wait.

Mrs Hippopotamuses tab

403 views 1 this week
no commentswrite comment
1 2 3 4 5
2 more votes to show rating
add to favorites
×
Save as Personal and add changes to this tab that will be seen only by you. Learn more ›
×
You can save this tab as Personal to edit and correct it or add notes. All changes will be seen only by you. Learn more »
launch autoscroll
font size
0
reset
how to read this tab
guitar tuner
edit
Autoscroll
slow
fast
+/-
esc
set tempo
stop
[Intro]

e|-10-10--10-10-10--10-10-10--10-10-10----10---------------------------------------------|
B|-11-11--11-10-10--10-11-11--11-10-10----10--------11-11--11--------11-11---------------|
G|-12-12--12-12-12--12-12-12--12-12-12----12-8-8--8-10-10--10-8-8--8-10-10---------------|
D|-12-12--12-12-12--12-12-12--12-12-12----12-8-8--8-8--8---8--8-8--8-8--8----------------|
A|-10-10--10-10-10--10-10-10--10-10-10----10-6-6--6-----------6-6--6---------------------|
E|---------------------------------------------------------------------------------------|


e|-10-10--10-10-10--10-10-10--10-10-10----10---------------------------------------------|
B|-11-11--11-10-10--10-11-11--11-10-10----10--------11-11--11-13-13-13-13-13-------------|
G|-12-12--12-12-12--12-12-12--12-12-12----12-8-8--8-10-10--10-12-12-12-12-12-------------|
D|-12-12--12-12-12--12-12-12--12-12-12----12-8-8--8-8--8---8--10-10-10-10-10-------------|
A|-10-10--10-10-10--10-10-10--10-10-10----10-6-6--6--------------------------------------|
E|---------------------------------------------------------------------------------------|



[Verse 1]

e|---------------------------------------------------------------------------------|
B|---------------------------------------------------------------------------------|
G|---------------------------------------------------------------------------------|
D|-8-8-8-8-8-8-8-8-8-8-8-8-8-8-8-8-7-7-7-7-7-7-7-7-7-7-7-7-7-7-7-7-5-5-5-5-5-5-5-5-|
A|-8-8-8-8-8-8-8-8-8-8-8-8-8-8-8-8-7-7-7-7-7-7-7-7-7-7-7-7-7-7-7-7-5-5-5-5-5-5-5-5-|
E|-6-6-6-6-6-6-6-6-6-6-6-6-6-6-6-6-5-5-5-5-5-5-5-5-5-5-5-5-5-5-5-5-3-3-3-3-3-3-3-3-| 

e|---------------------------------------------------|
B|---------------------------------------------------|
G|---------------------------------------------------|
D|-7-7-7-7-7-7-7-7-8-8-8-8-8-8-8-8-8-8-8-8-8-8-8--8--|
A|-7-7-7-7-7-7-7-7-6-6-6-6-6-6-6-6-6-6-6-6-6-6-6--6--|
E|-5-5-5-5-5-5-5-5-6-6-6-6-6-6-6-6-6-6-6-6-6-6-6--6--|   *pause

e|---------------------------------------------------------------------------------|
B|---------------------------------------------------------------------------------|
G|---------------------------------------------------------------------------------|
D|-8-8-8-8-8-8-8-8-8-8-8-8-8-8-8-8-7-7-7-7-7-7-7-7-7-7-7-7-7-7-7-7-5-5-5-5-5-5-5-5-|
A|-8-8-8-8-8-8-8-8-8-8-8-8-8-8-8-8-7-7-7-7-7-7-7-7-7-7-7-7-7-7-7-7-5-5-5-5-5-5-5-5-|
E|-6-6-6-6-6-6-6-6-6-6-6-6-6-6-6-6-5-5-5-5-5-5-5-5-5-5-5-5-5-5-5-5-3-3-3-3-3-3-3-3-| 

e|---------------------------------------------------|
B|---------------------------------------------------|
G|---------------------------------------------------|
D|-7-7-7-7-7-7-7-7-8-8-8-8-8-8-8-8-8-8--8--8---------|
A|-7-7-7-7-7-7-7-7-6-6-6-6-6-6-6-6-8-8--8--8---------|
E|-5-5-5-5-5-5-5-5-6-6-6-6-6-6-6-6-6-6--6--6---------|   

e|-----------------------------------------------------------------|
B|-----------------------------------------------------------------|
G|-----------------------------------------------------------------|
D|-5-5-5-5-5-5-5-5-3-3-3-3-3-3-3-3-8-8-8-8-8-8-8-8-7-7-7-7-7-7-7-7-|
A|-5-5-5-5-5-5-5-5-3-3-3-3-3-3-3-3-8-8-8-8-8-8-8-8-7-7-7-7-7-7-7-7-|
E|-3-3-3-3-3-3-3-3-1-1-1-1-1-1-1-1-6-6-6-6-6-6-6-6-5-5-5-5-5-5-5-5-|  

e|-------------------------------------------------------------------------|
B|-------------------------------------------------------------------------|
G|-------------------------------------------------------------------------|
D|-5-5-5-5-5-5-5-5-7-7-7-7-7-7-7-7-8-8-8-8-8-8-8-8-8-8-8-8-8-8--8--8-------|
A|-5-5-5-5-5-5-5-5-7-7-7-7-7-7-7-7-8-8-8-8-8-8-8-8-8-8-8-8-8-8--8--8-------|
E|-3-3-3-3-3-3-3-3-5-5-5-5-5-5-5-5-6-6-6-6-6-6-6-6-6-6-6-6-6-6--6--6-------|  

e|-----------------------------------------------------------------|
B|-----------------------------------------------------------------|
G|-----------------------------------------------------------------|
D|-5-5-5-5-5-5-5-5-3-3-3-3-3-3-3-3-8-8-8-8-8-8-8-8-7-7-7-7-7-7-7-7-|
A|-5-5-5-5-5-5-5-5-3-3-3-3-3-3-3-3-8-8-8-8-8-8-8-8-7-7-7-7-7-7-7-7-|
E|-3-3-3-3-3-3-3-3-1-1-1-1-1-1-1-1-6-6-6-6-6-6-6-6-5-5-5-5-5-5-5-5-|  

e|-------------------------------------------------------------------------|
B|-------------------------------------------------------------------------|
G|-------------------------------------------------------------------------|
D|-5-5-5-5-5-5-5-5-7-7-7-7-7-7-7-7-----------------------------------------|
A|-5-5-5-5-5-5-5-5-7-7-7-7-7-7-7-7-----------------------------------------|
E|-3-3-3-3-3-3-3-3-5-5-5-5-5-5-5-5-----------------------------------------|  


[Chorus]
e|-10-10--10-10-10--10-10-10--10-10-10----10---------------------------------------------|
B|-11-11--11-10-10--10-11-11--11-10-10----10--------11-11--11--------11-11---------------|
G|-12-12--12-12-12--12-12-12--12-12-12----12-8-8--8-10-10--10-8-8--8-10-10---------------|
D|-12-12--12-12-12--12-12-12--12-12-12----12-8-8--8-8--8---8--8-8--8-8--8----------------|
A|-10-10--10-10-10--10-10-10--10-10-10----10-6-6--6-----------6-6--6---------------------|
E|---------------------------------------------------------------------------------------|


e|-10-10--10-10-10--10-10-10--10-10-10----10---------------------------------------------|
B|-11-11--11-10-10--10-11-11--11-10-10----10--------11-11--11-13-13-13-13-13-------------|
G|-12-12--12-12-12--12-12-12--12-12-12----12-8-8--8-10-10--10-12-12-12-12-12-------------|
D|-12-12--12-12-12--12-12-12--12-12-12----12-8-8--8-8--8---8--10-10-10-10-10-------------|
A|-10-10--10-10-10--10-10-10--10-10-10----10-6-6--6--------------------------------------|
E|---------------------------------------------------------------------------------------|

[Guitar 2 with delay]

e|---------------------------------------------------------------------------------------|
B|---------------------------------------------------------------------------------------|
G|-12-12-10h12-10-8--------12-12-10h12-10-8----------------------------------------------|
D|------------------12-10-------------------12-10----------------------------------------|
A|---------------------------------------------------------------------------------------|
E|---------------------------------------------------------------------------------------|\
pm *  *  *   *  *  * *  *   *  *  *  *  *  * *  *

e|---------------------------------------------------------------------------------------|
B|---------------------------------------------------------------------------------------|
G|---------------------------------------------------------------------------------------|
D|-13-13-12h13-12-13-15-12--13-13-12h13-12-13-15-12--------------------------------------|
A|---------------------------------------------------------------------------------------|
E|---------------------------------------------------------------------------------------| x2
pm *  *  *   *  *  * *  *   *  *  *  *  *  *   *  *


[Verse 2 Guitar 1]

e|---------------------------------------------------------------------------------|
B|---------------------------------------------------------------------------------|
G|---------------------------------------------------------------------------------|
D|-8-8-8-8-8-8-8-8-8-8-8-8-8-8-8-8-7-7-7-7-7-7-7-7-7-7-7-7-7-7-7-7-5-5-5-5-5-5-5-5-|
A|-8-8-8-8-8-8-8-8-8-8-8-8-8-8-8-8-7-7-7-7-7-7-7-7-7-7-7-7-7-7-7-7-5-5-5-5-5-5-5-5-|
E|-6-6-6-6-6-6-6-6-6-6-6-6-6-6-6-6-5-5-5-5-5-5-5-5-5-5-5-5-5-5-5-5-3-3-3-3-3-3-3-3-| 

e|---------------------------------------------------|
B|---------------------------------------------------|
G|---------------------------------------------------|
D|-7-7-7-7-7-7-7-7-8-8-8-8-8-8-8-8-8-8-8-8-8-8-8-8---|
A|-7-7-7-7-7-7-7-7-6-6-6-6-6-6-6-6-6-6-6-6-6-6-6-6---|
E|-5-5-5-5-5-5-5-5-6-6-6-6-6-6-6-6-6-6-6-6-6-6-6-6---|   

[Guitar 2]

e|------------------------------------------------------------------------------------------|
B|------11----11----11-------------10----10----10-------------8-----8----10----11---11---11-|
G|----10----10----10----10-------12----12----12----12-------10----10----12----10---10---10--|
D|--12----12----12----12--12---12----12-----12---12--12---10----10-----12----12---12---12---|
A|13-------------------------12-------------------------10----------------------------------|
E|------------------------------------------------------------------------------------------|
 
[Guitar 1]

e|---------------------------------------------------------------------------------|
B|---------------------------------------------------------------------------------|
G|---------------------------------------------------------------------------------|
D|-8-8-8-8-8-8-8-8-8-8-8-8-8-8-8-8-7-7-7-7-7-7-7-7-7-7-7-7-7-7-7-7-5-5-5-5-5-5-5-5-|
A|-8-8-8-8-8-8-8-8-8-8-8-8-8-8-8-8-7-7-7-7-7-7-7-7-7-7-7-7-7-7-7-7-5-5-5-5-5-5-5-5-|
E|-6-6-6-6-6-6-6-6-6-6-6-6-6-6-6-6-5-5-5-5-5-5-5-5-5-5-5-5-5-5-5-5-3-3-3-3-3-3-3-3-| 

e|------------------------------------------------------|
B|------------------------------------------------------|
G|------------------------------------------------------|
D|-7-7-7-7-7-7-7-7-8-8-8-8-8-8-8-8-8-8-8-8--8--8--8--8--|
A|-7-7-7-7-7-7-7-7-6-6-6-6-6-6-6-6-6-6-6-6--6--6--6--6--|
E|-5-5-5-5-5-5-5-5-6-6-6-6-6-6-6-6-6-6-6-6--6--6--6--6--|   

e|-----------------------------------------------------------------|
B|-----------------------------------------------------------------|
G|-----------------------------------------------------------------|
D|-5-5-5-5-5-5-5-5-3-3-3-3-3-3-3-3-8-8-8-8-8-8-8-8-7-7-7-7-7-7-7-7-|
A|-5-5-5-5-5-5-5-5-3-3-3-3-3-3-3-3-8-8-8-8-8-8-8-8-7-7-7-7-7-7-7-7-|
E|-3-3-3-3-3-3-3-3-1-1-1-1-1-1-1-1-6-6-6-6-6-6-6-6-5-5-5-5-5-5-5-5-|  

e|-------------------------------------------------------------------------|
B|-------------------------------------------------------------------------|
G|-------------------------------------------------------------------------|
D|-5-5-5-5-5-5-5-5-7-7-7-7-7-7-7-7-8-8-8-8-8-8-8-8-8-8-8-8-8-8--8--8-------|
A|-5-5-5-5-5-5-5-5-7-7-7-7-7-7-7-7-8-8-8-8-8-8-8-8-8-8-8-8-8-8--8--8-------|
E|-3-3-3-3-3-3-3-3-5-5-5-5-5-5-5-5-6-6-6-6-6-6-6-6-6-6-6-6-6-6--6--6-------|  

e|-----------------------------------------------------------------|
B|-----------------------------------------------------------------|
G|-----------------------------------------------------------------|
D|-5-5-5-5-5-5-5-5-3-3-3-3-3-3-3-3-8-8-8-8-8-8-8-8-7-7-7-7-7-7-7-7-|
A|-5-5-5-5-5-5-5-5-3-3-3-3-3-3-3-3-8-8-8-8-8-8-8-8-7-7-7-7-7-7-7-7-|
E|-3-3-3-3-3-3-3-3-1-1-1-1-1-1-1-1-6-6-6-6-6-6-6-6-5-5-5-5-5-5-5-5-|  

e|-------------------------------------------------------------------------|
B|-------------------------------------------------------------------------|
G|-------------------------------------------------------------------------|
D|-5-5-5-5-5-5-5-5-7-7-7-7-7-7-7-7-----------------------------------------|
A|-5-5-5-5-5-5-5-5-7-7-7-7-7-7-7-7-----------------------------------------|
E|-3-3-3-3-3-3-3-3-5-5-5-5-5-5-5-5-----------------------------------------|  


[Chorus]

e|-10-10--10-10-10--10-10-10--10-10-10----10---------------------------------------------|
B|-11-11--11-10-10--10-11-11--11-10-10----10--------11-11--11--------11-11---------------|
G|-12-12--12-12-12--12-12-12--12-12-12----12-8-8--8-10-10--10-8-8--8-10-10---------------|
D|-12-12--12-12-12--12-12-12--12-12-12----12-8-8--8-8--8---8--8-8--8-8--8----------------|
A|-10-10--10-10-10--10-10-10--10-10-10----10-6-6--6-----------6-6--6---------------------|
E|---------------------------------------------------------------------------------------|


e|-10-10--10-10-10--10-10-10--10-10-10----10---------------------------------------------|
B|-11-11--11-10-10--10-11-11--11-10-10----10--------11-11--11-13-13-13-13-13-------------|
G|-12-12--12-12-12--12-12-12--12-12-12----12-8-8--8-10-10--10-12-12-12-12-12-------------|
D|-12-12--12-12-12--12-12-12--12-12-12----12-8-8--8-8--8---8--10-10-10-10-10-------------|
A|-10-10--10-10-10--10-10-10--10-10-10----10-6-6--6--------------------------------------|
E|---------------------------------------------------------------------------------------|


{guitar 2 with delay}

e|---------------------------------------------------------------------------------------|
B|---------------------------------------------------------------------------------------|
G|-12-12-10h12-10-8--------12-12-10h12-10-8----------------------------------------------|
D|------------------12-10-------------------12-10----------------------------------------|
A|---------------------------------------------------------------------------------------|
E|---------------------------------------------------------------------------------------|\
pm *  *  *   *  *  * *  *   *  *  *  *  *  * *  *

e|---------------------------------------------------------------------------------------|
B|---------------------------------------------------------------------------------------|
G|---------------------------------------------------------------------------------------|
D|-13-13-12h13-12-13-15-12--13-13-12h13-12-13-15-12--------------------------------------|
A|---------------------------------------------------------------------------------------|
E|---------------------------------------------------------------------------------------| x2
pm *  *  *   *  *  * *  *   *  *  *  *  *  *   *  *


Legend:
|p pull-off  |
|h hammer-on |
|* palm mute |


            
            
Suggest correction
Creating personal tab
Creating personal tab
You can edit any tab online and save it as your Personal.

You can edit, replace or remove any tab part or add personal notes – all changes will be seen only by you.

Personal tabs can be accessed anytime from any device, even offline.
Learn more »
Give kudos to tab author, rate the tab!
1 2 3 4 5
comments
print report bad tab
guest
You may want to rate the tab now too:
select rating
Wanna post a correction for this tab? Suggest correction