Oops, an error
Loading. Please wait.

Must Have Done Something Right tab

version 1
version 1

Whole song

Interactive

28,122 views 6 this week
13 commentsread comments
1 2 3 4 5
x 17
add to favorites
×
Save as Personal and add changes to this tab that will be seen only by you. Learn more ›
×
You can save this tab as Personal to edit and correct it or add notes. All changes will be seen only by you. Learn more »
launch autoscroll
font size
0
reset
how to read this tab
guitar tuner
edit
Autoscroll
slow
fast
+/-
esc
set tempo
stop
Song: Must Have Done Something Right
Artist: Relient K
Album: Five Score and Seven Years Ago
Label: Capitol/Gotee

Eb tuning

Verse 1
Eb--333-333-----------555-555-555-555-|
Bb--333-333--777-777--555-555-555-555-|
Gb--444-444--777-777--444-444-444-444-|
Db--555-555--777-777--777-777-777-777-| x2
Ab--555-555--555-555--777-777-777-777-|
Eb--333-333-----------555-555-555-555-|

Pre-Chorus
Eb-0-0-000-3-33-3333--------------------0-0-000-3-33-3333----------|
Bb-0-0-000-3-33-3333--------------------0-0-000-3-33-3333----------|
Gb-0-0-000-4-44-4444-7-77-777-----------0-0-000-4-44-4444-7-77-777-|
Db-2-2-222-5-55-5555-7-77-777-7-77-7777-2-2-222-5-55-5555-7-77-777-|
Ab-2-2-222-5-55-5555-5-55-555-7-77-7777-2-2-222-5-55-5555-5-55-555-|
Eb-0-0-000-3-33-3333----------5-55-5555-0-0-000-3-33-3333----------|

Eb--------------------|
Bb--------------------|
Gb--------------------|
Db-7-77-7777-77777777-|
Ab-7-77-7777-77777777-|
Eb-5-55-5555-55555555-|

Chorus
Eb----------------------------------------------------------------------|
Bb----------------------------------------------------------------------|
Gb-777-----777-----555-----555-----777-----777-----555-----555----------|
Db-777-777-777-777-555-555-555-555-777-777-777-777-555-555-555-555-7----|
Ab-555-777-555-777-333-555-333-555-555-777-555-777-333-555-333-555-7x16-|
Eb-----555-----555-----333-----333-----555-----555-----333-----333-5----|

Verse 2
Eb--333-333-----------555-555-555-555-|
Bb--333-333--777-777--555-555-555-555-|
Gb--444-444--777-777--444-444-444-444-|
Db--555-555--777-777--777-777-777-777-| x5
Ab--555-555--555-555--777-777-777-777-|
Eb--333-333-----------555-555-555-555-|

Pre-Chorus
Eb-0-0-000-3-33-3333--------------------0-0-000-3-33-3333----------|
Bb-0-0-000-3-33-3333--------------------0-0-000-3-33-3333----------|
Gb-0-0-000-4-44-4444-7-77-777-----------0-0-000-4-44-4444-7-77-777-|
Db-2-2-222-5-55-5555-7-77-777-7-77-7777-2-2-222-5-55-5555-7-77-777-|
Ab-2-2-222-5-55-5555-5-55-555-7-77-7777-2-2-222-5-55-5555-5-55-555-|
Eb-0-0-000-3-33-3333----------5-55-5555-0-0-000-3-33-3333----------|

Eb--------------------|
Bb--------------------|
Gb--------------------|
Db-7-77-7777-77777777-|
Ab-7-77-7777-77777777-|
Eb-5-55-5555-55555555-|

Chorus
Eb----------------------------------------------------------------------|
Bb----------------------------------------------------------------------|
Gb-777-----777-----555-----555-----777-----777-----555-----555----------|
Db-777-777-777-777-555-555-555-555-777-777-777-777-555-555-555-555-7----|
Ab-555-777-555-777-333-555-333-555-555-777-555-777-333-555-333-555-7x16-|
Eb-----555-----555-----333-----333-----555-----555-----333-----333-5----|

Bridge
Eb----------5-5-5555------------3-3-3333--6-6-6666--1-1-1111-----------------|
Bb7-7-7777--5-5-5555--5-5-5555--3-3-3333--6-6-6666--1-1-1111--5-5-5555-5-5-5-|
Gb7-7-7777--6-6-6666--5-5-5555--4-4-4444--7-7-7777--2-2-2222--5-5-5555-5-5-5-|
Db7-7-7777--7-7-7777--5-5-5555--5-5-5555--8-8-8888--3-3-3333--5-5-5555-5-5-5-|
Ab5-5-5555--7-7-7777--3-3-3333--5-5-5555--8-8-8888--3-3-3333--3-3-3333-3-3-3-|
Eb----------5-5-5555------------3-3-3333--6-6-6666--1-1-1111-----------------|

Chorus 2
Eb---------------------------------|
Bb---------------------------------|
Gb-777-----777-----555-----555-----|
Db-777-777-777-7-7-555-555-555-555-|
Ab-555-777-555-7-7-333-555-333-555-|
Eb-----555-----5-5-----333-----333-|

Eb---------------------------------|
Bb---------------------------------|
Gb-777-----777-----555-----555-----|
Db-777-777-777-777-555-555-555-555-|
Ab-555-777-555-777-333-555-333-555-|
Eb-----555-----555-----333-----333-|
Suggest correction
Creating personal tab
Creating personal tab
You can edit any tab online and save it as your Personal.

You can edit, replace or remove any tab part or add personal notes – all changes will be seen only by you.

Personal tabs can be accessed anytime from any device, even offline.
Learn more »
comments
print report bad tab
13 comments total. Showing first comments.
0 reply
blinkrocks 127 Mar 08, 2007 06:58 AM

someone need to tab the bass for this out.

0 reply
dedicated_2 52 Mar 17, 2007 06:17 PM

awsome tab.sounds about right

0 reply
dedicated_2 52 Mar 17, 2007 06:18 PM

oh wait, i saw you playing it on youtube...but ur camera was not synced!!
hahaha

guest
You may want to rate the tab now too:
select rating
Wanna post a correction for this tab? Suggest correction