Oops, an error
Loading. Please wait.

Operation tab

79 views 1 this week
1 commentread comment
1 2 3 4 5
x 4
add to favorites
×
Save as Personal and add changes to this tab that will be seen only by you. Learn more ›
×
You can save this tab as Personal to edit and correct it or add notes. All changes will be seen only by you. Learn more »
launch autoscroll
font size
0
reset
how to read this tab
guitar tuner
edit
Autoscroll
slow
fast
+/-
esc
set tempo
stop
Hey everyone, me again. My guitar teacher Bob Bartoli (he's AMAZING!!! he's been playing
for 40 plus years and  can play almost anything. I highly recommend him for lessons if
you are in the Wilkes-Barre/Scranton area (look up Music-Go-Round)) and I figured this 
out so it's 100% correct. The solo has one little bug in it, though. Well,here you go:
Date:72513

Intro:
e||-------------|------------|------------|------------|------------|
b||-------------|------------|------------|------------|------------|
g||.------------|------------|------------|------------|------------|
D||.------------|------------|------------|-6--6-6666-0|-8--8-8888-0|
A||--4--4-4444-0|-4--4-4444-0|-4--4-4444-0|-4--4-4444-0|-6--6-6666-0|
E||--2--2-2222-0|-2--2-2222-0|-2--2-2222-0|------------|------------|

e|-------------|-------------|-------------|-------------|------------||
b|-------------|-------------|-------------|-------------|------------||
g|-------------|-------------|-------------|-------------|-----------.||
D|-------------|-------------|-------------|-4--4-4444-0-|-7--7--9--9.||
A|-8--8-8888-0-|-9--9-9999-0-|-4--4-4444-0-|-2--2-2222-0-|-5--5--7--7-||
E|-6--6-6666-0-|-7--7-7777-0-|-2--2-2222-0-|-------------|staccato----||

Solo:(over intro)
e||----------|------------|-----------|-----------|-----------|-----------|
b||----------|------------|-----------|-----------|-----------|-----------|
g||.---6--6v-|------6--6v-|-----------|-----------|-----------|------6--6v|
D||.-8-------|-8--6-------|-6----8--8v|------8--8v|-----------|-----------|
A||----------|------------|----9------|-9--8------|-8--6-9--9v|-6--9------|
E||----------|------------|-----------|-----------|-----------|-----------|

e|-----------|ending------||--------------|
b|-----------|one---------||-7-----12-11~v|
g|-----------|----------4.||---7--9-------|
D|----9------|-9--4------.||ending--------|
A|-9----9--9v|------5--7--||two-----------|
E|-----------|------------||--------------|

Verse 1 :(palm muted)
e|-----------|--------------|----------|----------|----------|----------|
b|-----------|--------------|----------|----------|----------|----------|
g|-----------|--------------|----------|----------|----------|----------|
D|silent bass|-77-7~--99-9~-|----------|-66666666-|-88888888-|----------|
A|intro------|-55-5~--77-7~-|-44444444-|-44444444-|-66666666-|-88888888-|
E|-----------|-**-----**----|-22222222-|----------|----------|-66666666-|

e|----------|----------|----------|--------|
b|----------|----------|----------|--------|
g|----------|----------|----------|--------|
D|----------|----------|-44444444-|-7~--9~-|
A|-99999999-|-44444444-|-22222222-|-5~--7~-|
E|-77777777-|-22222222-|----------|--------|

Chorus:
e||----|---|--------------||-------------------------|
b||----|---|--------------||-------------------------|
g||.---|---|-------------.||-------------------------|
D||.-4~|---|-8~----6~----.||-8~----6~----8~----6~----|
A||--2~|-4~|-6~-8~-4~-4~--||-6~-8~-4~-4~-6~-8~-4~-4~-|
E||----|-2~|----6~----2~--||----6~----2~----6~----2~-|

Verse 2:(keep same riff from second half of verse 1 for beginning and play
that for bass intro)

Chorus 2:(same as chorus 1)

Bridge:
e|-------------|---|-------------------------------------|
b|-------------|---|-------------------------------------|
g|palm mute-b5-|---|play---------------------------------|
D|4~--44444--6~|---|2 more-44444444444444444--66666666-6~|
A|2~--22222--4~|-4~|times--22222222222222222--44444444-4~|
E|-------------|-2~|-------pam mute b5-------------------|

Chorus 3/Outro:
e||----|---|--------------||-------------------------|------------|
b||----|---|--------------||-------------------------|------------|
g||.---|---|-------------.||-------------------------|------------|
D||.-4~|---|-8~----6~----.||-8~----6~----8~----6~----|-77777777-7~|
A||--2~|-4~|-6~-8~-4~-4~--||-6~-8~-4~-4~-6~-8~-4~-4~-|-55555555-5~|
E||----|-2~|----6~----2~--||----6~----2~----6~----2~-|palm mute---|

e||----|---|--------------||-------------------------|-----------|----------|
b||----|---|--------------||-------------------------|-----------|----------|
g||.---|---|-------------.||-------------------------|-----------|----------|
D||.-4~|---|-8~----6~----.||-8~----6~----8~----6~----|-----------|----------|
A||--2~|-4~|-6~-8~-4~-4~--||-6~-8~-4~-4~-6~-8~-4~-4~-|-4--4-4444-|-4--4-4444|
E||----|-2~|----6~----2~--||----6~----2~----6~----2~-|-2--2-2222-|-2--2-2222|

e|-----------|---|
b|-----------|---|
g|-----------|---|
D|-----------|---|
A|-4--4-4444-|-4~|
E|-2--2-2222-|-2~|

Key:
v- vibrato
palm mute- palm mute
*- palm mute

If you want to do the bass intro, just do the bass note from those chords
in the strum pattern in the song. Personalize the strum pattern for chorus--
be creative!!! :) Look up Bob Bartoli for lessons. Please rate and comment, God bless!
Suggest correction
Creating personal tab
Creating personal tab
You can edit any tab online and save it as your Personal.

You can edit, replace or remove any tab part or add personal notes – all changes will be seen only by you.

Personal tabs can be accessed anytime from any device, even offline.
Learn more »
comments
print report bad tab
1 comment total.
0 reply
JESUSFREA343 1,741 Oct 27, 2013 12:04 PM

e||----------|------------|-----------|-----------|-----------|-----------|
b||----------|------------|-----------|-----------|-----------|-----------|
g||.---6--6v-|------6--6v-|-----------|-----------|-----------|------6--6v|
D||.-8-------|-8--6-------|-6----8--8v|------8--8v|-----------|-----------|
A||----------|------------|----9------|-9--8------|-8--6-9--9v|-6--9------|
E||----------|------------|-----------|-----------|-----------|-----------|
in the 4th measure it should be:
e|------------| SORRY!:/
b|------------|
g|------------|
D|------------|
A|-9--6-8--8v-|
E|------------|

guest
You may want to rate the tab now too:
select rating
Wanna post a correction for this tab? Suggest correction