Oops, an error
Loading. Please wait.

Part Of It Tab

1,239 views 6 this week
1 commentread comment
1 2 3 4 5
excellent!
x 5
add to favorites
launch autoscroll
font size
0
reset
how to read this tab
guitar tuner
Autoscroll
slow
fast
+/-
esc
set tempo
stop
Help us to improve Ultimate-Guitar.com Take our survey!
×
Difficulty
Tuning
intermediate
D# G# C# F# A# D#
Artist: Relient K
Song: Part of It
Album: Forget and Not Slow Down
Tabbed by:  ...Alex...
Tuning: Guitar Tuned down one Half Step (Eb Bb Gb Db Ab Eb)

The tuning is a drop tuning, either all down half a step or a full step from standard (I
just did it by ear, so I can't confirm!).

=============================================================================
Start- Introduction (0:00)
=============================================================================


GUITAR 1
-----------------------------------------------------------------------------

    Bass intro...  E/C#       E       E/C#
Eb:------------------0---------0--------0----------------------------------|
Bb:------------------0---------0--------0----------------------------------|
Gb:------------------1---------1--------1----------------------------------|
Db:------------------2---------2--------2----------------------------------|
Ab:------------------4---------2--------4----------------------------------|
Eb:----------------------------O-------------------------------------------|


or E/C# could be played as below if you find it easier...

E:--0--|
B:--0--|
G:--6--|
D:--6--|
A:--4--|
E:-----|


GUITAR 2
-----------------------------------------------------------------------------

Eb:------------------0---------0-------------------------2--0---------------|
Bb:------------------0---------0----------------4--------------4--2--4------|
Gb:------------------1---------1--------------4---4----4----------------4---|
Db:------------------2---------2--------------------------------------------|
Ab:------------------4---------2--------------------------------------------|
Eb:----------------------------O--------------------------------------------|



=============================================================================
Verse 1(0:21) I've been working with....
=============================================================================

            E          E/C#
Eb:---------0-----------0--------|
Bb:---------0-----------0--------|
Gb:---------1-----------1--------|   x2
Db:---------2-----------2--------|
Ab:---------2-----------4--------|
Eb:---------O--------------------|
            . (PM)



(0:42) But you, should know....

Eb:------------------0-----0-----0-----X-X-X---|
Bb:------4-----0-----0-----0-----0-----X-X-X---|
Gb:------6-----6-----4-----2-----1-----X-X-X---|
Db:------7-----7-----6-----4-----2-----X-X-X---|
Ab:------0-----0-----------------2-----X-X-X---|
Eb:------------------------------0-----X-X-X---|


=============================================================================
Chorus (0:51) It's not the end of the world....
=============================================================================


GUITAR 1
-----------------------------------------------------------------------------

                  ev----ry one    ev----ry thing-------------------|     (muted scratch)
Eb:-----0---------------------------------------------X-X-X-X------|
Bb:-----0---------0-0---0-0-------0-0---0-0-----------X-X-X-X------|
Gb:-----1---------2-2---2-2-------2-2---2-2-----------X-X-X-X------|
Db:-----2---------2-2---2-2-------2-2---2-2-----------X-X-X-X------|
Ab:-----2---------0-0---0-0-------0-0---0-0-----------X-X-X-X------|
Eb:-----0---------2-2---2-2-------2-2---2-2-----------X-X-X-X------|



(1:01) if a nightmare ever does unfold perspective is a lovely hand to hold

Eb:-------------0-----------0---------------0-------------0-------------0---|
Bb:-------------0-----------0---------------0-------------0-------------0---|
Gb:-------------1-----------2---------------1-------------2-------------1---|
Db:-------------2-----------2---------------2-------------4-------------2---|
Ab:-------------0-----------0---------------0-------------0-------------2---|
Eb:-------------------------------------------------------0-----------------|



GUITAR 2
-----------------------------------------------------------------------------

                  ev ----ry one  ev------------------|ry thing
E:---------------------------------------------------|
B:---------------------------------------------------|
G:----13----11----11 11--13------11-11--9---9--------|
D:----x-----x---------------11-----------------------|
A:----11----9-----9 -9---11------9--9---7---7--------|
E:----0-----0---------------9------------------------|


=============================================================================
Verse 2 (1:13) And I've been trying to....
=============================================================================

Same as verse 1, but without palm muting and with the added part.


Eb:---------0---------0-------------------------2--0------------------|
Bb:---------0---------0----------------4--------------4--2--4---------|
Gb:---------1---------1--------------4---4----4----------------4------|
Db:---------2---------2-----------------------------------------------| x2
Ab:---------2---------4-----------------------------------------------|
Eb:---------0---------------------------------------------------------|


(1:33) To combat the lapse....

Eb:------------------0-----0-----0-----X-X-X---|
Bb:------4-----0-----0-----0-----0-----X-X-X---|
Gb:------6-----6-----4-----2-----1-----X-X-X---|
Db:------7-----7-----6-----4-----2-----X-X-X---|
Ab:------0-----0-----------------2-----X-X-X---|
Eb:------------------------------0-----X-X-X---|


=============================================================================
Chorus 2 (1:44) It's not the end of the world....
=============================================================================

Same as chorus 1, but then changes....


(2:00) It's been forever....

Eb:---0-0---0-0---0~-------0-0---0-0---0~-----------------------|
Bb:---0-0---0-0---0~-------0-0---0-0---0~-----------------------|
Gb:---2-2---2-2---2~-------2-2---2-2---2~------------4----------|
Db:---2-2---2-2---2~-------2-2---2-2---2~------2-2--------------|
Ab:---0-0---0-0---0~-------0-0---0-0---0~------2-2---2----------|
Eb:--------------------------------------------0-0--------------|


Eb:---0-0---0-0---0-0---0-0------0-0---0-0---0-0---0-0------------------|
Bb:---0-0---0-0---0-0---0-0------0-0---0-0---0-0---0-0------------------|
Gb:---2-2---2-2---2-2---2-2------2-2---2-2---2-2---2-2-----------4------|
Db:---2-2---2-2---2-2---2-2------2-2---2-2---2-2---2-2----2-2-----------|
Ab:---0-0---0-0---0-0---0-0------0-0---0-0---0-0---0-0----2-2----2------|
Eb:-------------------------------------------------------0-0-----------|



=============================================================================
Break 1 (2:23) I swear this to you....
=============================================================================


Eb:----0~----0~----0~----0~----0~-----|
Bb:----0~----0~----0~----0~----0~-----|
Gb:----2~----8~----8~----8~----9~-----|
Db:----2~----9~----9~----9~----9~-----|
Ab:----0~----------------------0------|
Eb:----------7~----9~----0~-----------|



(2:38) Not convinced it's what you....

Eb:---0-0-0-0-0-0----------------|
Bb:---0-0-0-0-0-0----------------|
Gb:---2-2-2-2-2-2---------4------|
Db:---2-2-2-2-2-2---2-2----------|
Ab:---0-0-0-0-0-0---2-2---2------|
Eb:-----------------0-0----------|



=============================================================================
Chorus 3 (2:44) It's not the end of the world....
=============================================================================

Same as chorus 1 x2.


-----------------------------------------------------------------------------

Enjoy! This is probably my favourite Relient K song so I was shocked to find that there 
was no tab.
Some of the chords may be slightly different or open to intepretation, but I think it's
mostly there and sounds pretty damn good!
comments
print report bad tab
1 comment total.
0 reply
jesernoob 39 wrote on June 2 2016, 10:33 pm

Anyone know how to play that bass intro? Im lost

I want to post or [tab]
guest
You may want to rate the tab now too:
select rating
Please do not post tabs as comments. Select "correction" instead!