Oops, an error
Loading. Please wait.

Pressing On tab

version 4
version 4

Whole song

Interactive

7,745 views 3 this week
1 commentread comment
1 2 3 4 5
1 last vote to show rating
add to favorites
×
Save as Personal and add changes to this tab that will be seen only by you. Learn more ›
×
You can save this tab as Personal to edit and correct it or add notes. All changes will be seen only by you. Learn more »
launch autoscroll
font size
0
reset
how to read this tab
guitar tuner
edit
Autoscroll
slow
fast
+/-
esc
set tempo
stop
Proudly Brought To You By: X-Red
Questions? Comments? Complaints? Email me at: Redguitar@aol.com
Artist: Relient K
Song Pressing On (from their album The Anatomy of the Tongue in Cheek)
Tuning: Standard (EADGBE)
Tab Key:
~  = Palm Mute
/  = Slide
*  = Let Ring
#) = Alternate fingering

Intro
Guitar 1 [*Play this 4 times*]
e|--------------------------------------------------|
B|--------------------------------------------------|
G|--------------------------------------------------|
D|-----3h4-----3-1-----3h4-----3-1------------------|
A|-4-4-------------1-1------------------------------|
E|---------4-4-------------2-2----------------------|

Guitar 2 [*Starts after Guitar 1 plays intro 1 time, Play this 3 times*]
e|--------------------------------------------------|
B|--------------------------------------------------|
G|--------------------------------------------------|
D|-6------------------------------------------------|
A|-4----6----8----4---------------------------------|
E|------4----6----2---------------------------------|

Verse
Guitar 1 & Guitar 2 (Play at same time) [*Play this 3 times*]
e|--------------------------------------------------|
B|--------------------------------------------------|
G|--------------------------------------------------|
D|-6~~~~--------------------------------------------|
A|-4~~~~6~~~~8~~~~4~~~~-----------------------------|
E|------4~~~~6~~~~2~~~~-----------------------------|

Guitar 1 [*Play this 1 time]
e|--------------------------------------------------|
B|--------------------------------------------------|
G|--------------------------------------------------|
D|-6-6-6-6------------------------------------------|
A|-4-4-4-4-6-6-6-6-8-8-8-8-4-4-4-4------------------|
E|---------4-4-4-4-6-6-6-6-2-2-2-2------------------|

Guitar 2 [*Play this 1 time with a combination of upstrokes and downstrokes*]
e|--------------------------------------------------|
B|--------------------------------------------------|
G|--------------------------------------------------|
D|-66666666-----------------------------------------|
A|-44444444666666668888888844444444-----------------|
E|---------444444446666666622222222-----------------|

Guitar 1 [*Play this 1 time while Guitar 2 rests*]
e|--------------------------------------------------|
B|--------------------------------------------------|
G|-6/8-8--6/8-8--8/10-10--8/10-10-------------------|
D|-6/8-8--6/8-8--8/10-10--8/10-10-------------------|
A|-4/6-6--4/6-6--6/-8--8--6/-8--8-------------------|
E|--------------------------------------------------|

Guitar 2 [*Rests as Guitar 1 plays the tab above*]

Guitar 1 [*Play this 1 time*]
e|--------------------------------------------------|
B|--------------------------------------------------|
G|------------------6/8-8--6/8-8--8/10-10--8/10-10--|
D|-6-6-6-6----------6/8-8--6/8-8--8/10-10--8/10-10--|
A|-4-4-4-4-6-6-6-6--4/6-6--4/6-6--6/-8--8--6/-8--8--|
E|---------4-4-4-4----------------------------------|

Guitar 2 [*Play this 1 time*] 
e|--------------------------------------------------|
B|--------------------------------------------------|
G|--------------------------------------------------|
D|-6-6-6-6------------------------------------------|
A|-4-4-4-4-6-6-6-6-8-8-8-8-4-4-4-4------------------|
E|---------4-4-4-4-6-6-6-6-2-2-2-2------------------|

Guitar 1 & Guitar 2 (Play at same time) [*Play this 1 time*]
e|--------------------------------------------------|
B|--------------------------------------------------|
G|--------------------------------------------------|
D|-6-6-6-6------------------------------------------|
A|-4-4-4-4-6-6-6-6-4-4-4-4-6-6-6--------------------|
E|---------4-4-4-4-2-2-2-2-4-4-4--------------------|

Chorus
Guitar 1 & Guitar 2 (Add Variation of similar rhythm if you want) [*Play this 3 times*]
e|--------------------------------------------------|
B|--------------------------------------------------|
G|--------------------------------------------------|
D|-6-6----------------------------------------------|
A|-4-4-6-6-6-6-8-8-4-4-4-4--------------------------|
E|-----4-4-4-4-6-6-2-2-2-2--------------------------|

Guitar 1 & Guitar 2 (Play at same time) [*Play this 1 time*]
e|--------------------------------------------------|
B|--------------------------------------------------|
G|--------------------------------------------------|
D|--------------------------------------------------|
A|-4-4-4-4-6-6-6------------------------------------|
E|-2-2-2-2-4-4-4------------------------------------|

Verse
Guitar 1 & Guitar 2 (Play at same time) [*Play this 3 times*]
e|--------------------------------------------------|
B|--------------------------------------------------|
G|--------------------------------------------------|
D|-6~~~~--------------------------------------------|
A|-4~~~~6~~~~8~~~~4~~~~-----------------------------|
E|------4~~~~6~~~~2~~~~-----------------------------|

Guitar 1 [*Play this 1 time*]
e|--------------------------------------------------|
B|--------------------------------------------------|
G|--------------------------------------------------|
D|-6-6-6-6------------------------------------------|
A|-4-4-4-4-6-6-6-6-8-8-8-8-4-4-4-4------------------|
E|---------4-4-4-4-6-6-6-6-2-2-2-2------------------|

Guitar 2 [*Play this 1 time with a combination of upstrokes and downstrokes*]
e|--------------------------------------------------|
B|--------------------------------------------------|
G|--------------------------------------------------|
D|-66666666-----------------------------------------|
A|-44444444666666668888888844444444-----------------|
E|---------444444446666666622222222-----------------|

Guitar 1 [*Play this 1 time while Guitar 2 rests*]
e|--------------------------------------------------|
B|--------------------------------------------------|
G|-6/8-8--6/8-8--8/10-10--8/10-10-------------------|
D|-6/8-8--6/8-8--8/10-10--8/10-10-------------------|
A|-4/6-6--4/6-6--6/-8--8--6/-8--8-------------------|
E|--------------------------------------------------|

Guitar 2 [*Rests as Guitar 1 plays the tab above*]

Guitar 1 [*Play this 1 time*]
e|--------------------------------------------------|
B|--------------------------------------------------|
G|------------------6/8-8--6/8-8--8/10-10--8/10-10--|
D|-6-6-6-6----------6/8-8--6/8-8--8/10-10--8/10-10--|
A|-4-4-4-4-6-6-6-6--4/6-6--4/6-6--6/-8--8--6/-8--8--|
E|---------4-4-4-4----------------------------------|

Guitar 2 [*Play this 1 time*] 
e|--------------------------------------------------|
B|--------------------------------------------------|
G|--------------------------------------------------|
D|-6-6-6-6------------------------------------------|
A|-4-4-4-4-6-6-6-6-8-8-8-8-4-4-4-4------------------|
E|---------4-4-4-4-6-6-6-6-2-2-2-2------------------|

Guitar 1 & Guitar 2 (Play at same time) [*Play this 1 time*]
e|--------------------------------------------------|
B|--------------------------------------------------|
G|--------------------------------------------------|
D|-6-6-6-6------------------------------------------|
A|-4-4-4-4-6-6-6-6-4-4-4-4-6-6-6--------------------|
E|---------4-4-4-4-2-2-2-2-4-4-4--------------------|

Chorus
Guitar 1 & Guitar 2 (Add Variation of similar rhythm if you want) [*Play this 3 times*]
e|--------------------------------------------------|
B|--------------------------------------------------|
G|--------------------------------------------------|
D|-6-6----------------------------------------------|
A|-4-4-6-6-6-6-8-8-4-4-4-4--------------------------|
E|-----4-4-4-4-6-6-2-2-2-2--------------------------|

Guitar 1 & Guitar 2 (Play at same time) [*Play this 1 time*]
e|--------------------------------------------------|
B|--------------------------------------------------|
G|--------------------------------------------------|
D|--------------------------------------------------|
A|-4-4-4-4-6-6-6------------------------------------|
E|-2-2-2-2-4-4-4------------------------------------|

Guitar 1 & Guitar 2 (Play at same time) [*Play this 1 time*]
e|--------------------------------------------------|
B|--------------------------------------------------|
G|--------------------------------------------------|
D|-6-6----------------------------------------------|
A|-4-4-6-6-6-6-8-8-4-4-4-4--------------------------|
E|-----4-4-4-4-6-6-2-2-2-2--------------------------|

Guitar 1 & Guitar 2 (Play at same time) [*Play this 1 time*]
e|--------------------------------------------------|
B|--------------------------------------------------|
G|--------------------------------------------------|
D|-6-6----------------------------------------------|
A|-4-4-6-6-6-6-8-8-4--------------------------------|
E|-----4-4-4-4-6-6-2--------------------------------|

Intro
Guitar 1 [*Play this 4 times*]
e|--------------------------------------------------|
B|--------------------------------------------------|
G|--------------------------------------------------|
D|-----3h4-----3-1-----3h4-----3-1------------------|
A|-4-4-------------1-1------------------------------|
E|---------4-4-------------2-2----------------------|

Guitar 2 
  *Starts after Guitar 1 plays 1/2 time (at the chord 8-8-6)
  *Play this 3 times ()= Play only first half
e|--------------------------------------------------|
B|--------------------------------------------------|
G|--------------------------------------------------|
D|-(8----4)----6------------------------------------|
A|-(6----2)----4----6----8----4---------------------|
E|------------------4----6----2---------------------|

Guitar 1 & Guitar 2 (Play at same time) [*Play this 1 time*]
e|--------------------------------------------------|
B|--------------------------------------------------|
G|--------------------------------------------------|
D|-6****--------------------------------------------|
A|-4****-6****--4-4-4-4-6-6-6-----------------------|
E|-------4****--2-2-2-2-4-4-4-----------------------|

Guitar 1 & Guitar 2 (Play at same time) [*Play this 4 times*]
e|--------------------------------------------------|
B|--------------------------------------------------|
G|--------------------------------------------------|
D|-6-6----------------------------------------------|
A|-4-4-6-6-6-6-8-8-4-4-4-4--------------------------|
E|-----4-4-4-4-6-6-2-2-2-2--------------------------|

Guitar 1 & Guitar 2 (Play same time) [*Play this 1 time*]
e|--------------------------------------------------|
B|--------------------------------------------------|
G|--------------------------------------------------|
D|------------------6****---------------------------|
A|-4-4-4-4-6-6-6----4****---------------------------|
E|-2-2-2-2-4-4-4------------------------------------|

Interlude (Ending; Slow Part)
Guitar 1 (& Guitar 2 if you want) [*Play this 1 time*] 
e|--------------------------------------------------|
B|-6-6-6-6--6-6-6-6--6-6-6-5--8-8-8-5---------------|
G|--------------------------------------------------|
D|--------------------------------------------------|
A|--------------------------------------------------|
E|--------------------------------------------------|

Guitar 1 (& Guitar 2 if you want) [*Play this 1 time*]
e|--------------------------------------------------|
B|-6-6-6-5--6-6-6-5--6-6-6-6--6-6-6-6---------------|
G|--------------------------------------------------|
D|--------------------------------------------------|
A|--------------------------------------------------|
E|--------------------------------------------------|

Guitar 1 (& Guitar 2 if you want) [*Play this 1 time*]
e|--------------------------------------------------|
B|-6-6-6-5--6-6-6-5--6-6-6-5--8-8-8-5---------------|
G|--------------------------------------------------|
D|--------------------------------------------------|
A|--------------------------------------------------|
E|--------------------------------------------------|

Guitar 1 & Guitar 2 (Play at same time) [*Play this 1 time]
e|--------------------------------------------------|
B|--------------------------------------------------|
G|--------------------------------------------------|
D|---------------------6****------------------------|
A|-4****-----6****-----4****------------------------|
E|-2****-----4****----------------------------------|

            
            
Suggest correction
Creating personal tab
Creating personal tab
You can edit any tab online and save it as your Personal.

You can edit, replace or remove any tab part or add personal notes – all changes will be seen only by you.

Personal tabs can be accessed anytime from any device, even offline.
Learn more »
Give kudos to tab author, rate the tab!
1 2 3 4 5
comments
print report bad tab
1 comment total.
0 reply
chewy1297 311 Nov 02, 2013 05:56 PM

e|--------------------------------------------------|
B|--------------------------------------------------|
G|-6/8-8--6/8-8--8/10-10--8/10-10-------------------|
D|-6/8-8--6/8-8--8/10-10--8/10-10-------------------|
A|-4/6-6--4/6-6--6/-8--8--6/-8--8-------------------|
E|--------------------------------------------------|
should be
e|--------------------------------------------------|
B|--------------------------------------------------|
G|-6/8-8--6/8-8--8/11-11--8/11-11-------------------|
D|-6/8-8--6/8-8--8/11-11--8/11-11-------------------|
A|-4/6-6--4/6-6--6/-9--9--6/-9--9-------------------|
E|--------------------------------------------------|

guest
Wanna post a correction for this tab? Suggest correction