Oops, an error
Loading. Please wait.

Sadie Hawkins Dance Tab

version 3
version 3
10,643 views 6 this week
no commentswrite comment
1 2 3 4 5
accurate
x 6
add to favorites
launch autoscroll
font size
0
reset
how to read this tab
guitar tuner
Autoscroll
slow
fast
+/-
esc
set tempo
stop
Help us to improve Ultimate-Guitar.com Take our survey!
×
-------------------------------------------------------------------------------
                             SADIE HAWKINS DANCE - Relient K
-------------------------------------------------------------------------------


Tabbed by:will watkins
Email:ww_5@yahoo.com

GUTAIR PARTS ARE UNISON UNLESS SPECIFIED



Intro

GUTAIR 1
e-------------------------------------------------------|
B--------11------------10------------8-------------11---|
G----10------------10------------10------------10-------|
D-8-------------8-------------8-------------8-----------|
A-------------------------------------------------------|
E-------------------------------------------------------|

e-------------------------------------------------------|
B----11---11-------10---10-------8---8----------11---11-|
G--10---10-------10---10-------10--10---------10---10---|
D-8----8--------8----8--------8---8----------8----8-----|
A-------------------------------------------------------|
E-------------------------------------------------------|

e-------------------------------------------------------|
B----11---11-------10---10-------8---8----------11------|
G--10---10-------10---10-------10--10---------10--------|
D-8----8--------8----8--------8---8----------8----------|
A-------------------------------------------------------|
E-------------------------------------------------------| 

guitar 2 (soft)

E---6--6-----5--5-----3--3-----3--3-----6--6-----5--5-----3--3-----3--3-|
B-6--6-----6--6-----6--6-----4--4-----6--6-----6--6-----6--6-----4--4---|
G-----------------------------------------------------------------------|
D-----------------------------------------------------------------------|
A-----------------------------------------------------------------------|
E-----------------------------------------------------------------------|

E---6--6-----5--5-----3--3-----3--3-----6--6-----5--5-----3--3-----3--3-|
B-6--6-----6--6-----6--6-----4--4-----6--6-----6--6-----6--6-----4--4---|
G-----------------------------------------------------------------------|
D-----------------------------------------------------------------------|
A-----------------------------------------------------------------------|
E-----------------------------------------------------------------------|

E---6--6-----5--5-----3--3-----3--3-----6--6--|
B-6--6-----6--6-----6--6-----4--4-----6--6----|
G---------------------------------------------|
D---------------------------------------------|
A---------------------------------------------|
E---------------------------------------------|



GUITAR 1 (Distorted)

e|-----------------------------------------------------------------|
B|-----------------------------------------------------------------|
G|-----------------------------------------------------------------|
D|-3--3-3-3-3-3----------------------------------8-8-8-8-8-8-8-8---| 
A|-1--1-1-1-1-1---3--3-3-3-3-3---5--5-5-5-5-5----6-6-6-6-6-6-6-6---|
E|----------------1--1-1-1-1-1---3--3-3-3-3-3----------------------|(X4)


GUITAR 2
E-------------------------------------------------------6--6--6-|
B-3-3-3-4-4-4-6-6---3-3-3-4-4-4-6-6---3-3-3-4-4-4-6-6---6--6--6-|
G---------------------------------------------------------------|
D---------------------------------------------------------------|
A---------------------------------------------------------------|
E---------------------------------------------------------------|(X4)


Verse (Palm Muted)-
e|-----------------------------------------------------------------------|
B|-----------------------------------------------------------------------|
G|-----------------------------------------------------------------------|
D|-3-3-3-3-3-3-3-3-------------------------------------8-8-8-8-8-8-8-8---| 
A|-1-1-1-1-1-1-1-1---3-3-3-3-3-3-3-3--5-5-5-5-5-5-5-5--6-6-6-6-6-6-6-6---|
E|-------------------1-1-1-1-1-1-1-1--3-3-3-3-3-3-3-3--------------------|(x2)

Chorus
e|---------------------------------------------|
B|---------------------------------------------|
G|---------------------------------------------|
D|-3--3--3--3-------------------------------8--|
A|-1--1--1--1---3--3--3--3----5--5--5--5----6--|
E|--------------1--1--1--1----3--3--3--3-------|

e|-------------------------------------------------------|
B|-------------------------------------------------------|
G|-------------------------------------------------------|
D|-3--3--3--3------------------------------8--8-8-8-8-8--|
A|-1--1--1--1---3--3--3--3----5--5--5--5---6--6-6-6-6-6--|
E|--------------1--1--1--1----3--3--3--3-----------------|repet verse and chorus
GUITAR 1

e|-----------------------------------------------------------------|
B|-----------------------------------------------------------------|
G|-----------------------------------------------------------------|
D|-3--3-3-3-3-3----------------------------------8-8-8-8-8-8-8-8---| 
A|-1--1-1-1-1-1---3--3-3-3-3-3---5--5-5-5-5-5----6-6-6-6-6-6-6-6---|
E|----------------1--1-1-1-1-1---3--3-3-3-3-3----------------------I

GUITAR 2
E-------------------------------------------------------6--6--6-|
B-3-3-3-4-4-4-6-6---3-3-3-4-4-4-6-6---3-3-3-4-4-4-6-6---6--6--6-|
G---------------------------------------------------------------|
D---------------------------------------------------------------|
A---------------------------------------------------------------|
E---------------------------------------------------------------|

Bridge

E|--------------------------------------------------------------------------
B|--------------------------------------------------------------------------
G|-10-10-10-12-12-12-15-15--10-10-10-12-12-12-15-15--10-10-10-12-12-12-15-15
D|--------------------------------------------------------------------------
A|--------------------------------------------------------------------------
E|--------------------------------------------------------------------------

E|-----------------------|
B|-----------------------|
G|-15-15-15-12-12-12-10--| 
D|-----------------------| 



guitar 2 (soft)

E---6--6-----5--5-----3--3-----3--3-----6--6-----5--5-----3--3-----3--3-|
B-6--6-----6--6-----6--6-----4--4-----6--6-----6--6-----6--6-----4--4---|
G-----------------------------------------------------------------------|
D-----------------------------------------------------------------------|
A-----------------------------------------------------------------------|
E-----------------------------------------------------------------------|

E---6--6-----5--5-----3--3-----3--3-----6--6-----5--5-----3--3-----3--3-|
B-6--6-----6--6-----6--6-----4--4-----6--6-----6--6-----6--6-----4--4---|
G-----------------------------------------------------------------------|
D-----------------------------------------------------------------------|
A-----------------------------------------------------------------------|
E-----------------------------------------------------------------------|

E---6--6-----5--5-----3--3-----3--3-----6--6-----5--5-----3--3-----3--3-|
B-6--6-----6--6-----6--6-----4--4-----6--6-----6--6-----6--6-----4--4---|
G-----------------------------------------------------------------------|
D-----------------------------------------------------------------------|
A-----------------------------------------------------------------------|
E-----------------------------------------------------------------------|

E---6--6-|
B-6--6---|
G--------|
D--------|
A--------|
E--------|

listen for timing when guitar 1 comes in


guitar 1

e----------------------------------------------------|
B--------11-----------10-----------8------------11---|
G----10-----------10-----------10-----------10-------|
D-8------------8------------8------------8-----------|
A----------------------------------------------------|
E----------------------------------------------------|

e----------------------------------------------------|
B----11---11------10---10------8---8---------11---11-|
G--10---10------10---10------10--10--------10---10---|
D-8----8-------8----8-------8---8---------8----8-----|
A----------------------------------------------------|
E----------------------------------------------------|

e----------------------------------------------------|
B----11---11------10---10------8---8---------11------|
G--10---10------10---10------10--10--------10--------|
D-8----8-------8----8-------8---8---------8----------|
A----------------------------------------------------|
E----------------------------------------------------|(x2)


bass and drum interlude
(hears the bass line if u want it)

g--------------------------------------------------|
d--------------------------------------------------|
a---------------------------------------6--6-6-6-6-|
E---6--6-6-6-6--1--1-1-1-1--3--3-3-3-3-------------|


guitar 1

e----------------------|
b----------------------|
g----------------------|
a-8-8-8-8-8-8---10-10--|
e-6-6-6-6-6-6----8-8---|

Chorus
e|---------------------------------------------|
B|---------------------------------------------|
G|---------------------------------------------|
D|-3--3--3--3-------------------------------8--|
A|-1--1--1--1---3--3--3--3----5--5--5--5----6--|
E|--------------1--1--1--1----3--3--3--3-------|

e|-------------------------------------------------------|
B|-------------------------------------------------------|
G|-------------------------------------------------------|
D|-3--3--3--3------------------------------8--8-8-8-8-8--|
A|-1--1--1--1---3--3--3--3----5--5--5--5---6--6-6-6-6-6--|
E|--------------1--1--1--1----3--3--3--3-----------------|(X2)

END WITH

e--------|
b---5--6-|
g---5--5-|
d---3--3-|
a--------|
E--------|
Suggest correction
What's this?
You can suggest a correction to this tab. Community and Mods will review your correction and vote to approve or reject it.
comments
print report bad tab
guest
You may want to rate the tab now too:
select rating
Please do not post tabs as comments. Select "correction" instead!