Oops, an error
Loading. Please wait.

Sleepin ukulele

364 views 6 this week
no commentswrite comment
1 2 3 4 5
x 5
add to favorites
×
Save as Personal and add changes to this tab that will be seen only by you. Learn more ›
×
You can save this tab as Personal to edit and correct it or add notes. All changes will be seen only by you. Learn more »
launch autoscroll
font size
0
reset
transpose
0
reset
simplify chords
display chords
guitar tuner
edit
Autoscroll
slow
fast
+/-
esc
set tempo
stop
Author
Difficulty
Strumming
There is no strumming pattern for this song yet. and get +5 IQ
Relient k – Sleepin’ 
Ukulele Tab 
Tabbed by Jerdman2330  
Standard tuning

Chords used:
C:   0003
C/B: 0002
C/D: 0005
Dm:  2210
G:   0232
G7:  0212
F:   2010
Am:  2000 


[Intro]
A|---------0---------0---------0---|---------0---------0---------------|
E|-3---3/5-------5/7-------12\-----|-3---3/5-------5/7-------5\3-0-----|
C|-------------0---------0---------|-------------0---------0-----------|
G|---0-------0---------0---------0-|---0-------0---------0---------0---|

A|---------0---------0---------0---|---------0-------------------|
E|-3---3/5-------5/7-------12\-----|-3---3/5-------5\3\0---------|
C|-------------0---------0---------|-------------0-------2\0-0---|
G|---0-------0---------0---------0-|---0-------0-----------------|

A|-----7-----5-----7-----5-----5---|-----5-----3-----5-----3-----3-----|
E|---3-----3-----3-----3-----3-----|---3-----3-----3-----3-----3-------|  x2
C|-5-----5-----5-----5-----5-----5-|-4-----4-----4-----4-----4-----3---| 
G|---------------------------------|-----------------------------------|

A|-----0-----3-----2-----7-----2---|
E|---1-----1-----1-----1-----1-----| 
C|-2-----2-----2-----2-----2-------|   
G|---------------------------------|

A|---------0---------0---------0---|---------0---------0---------------|
E|-3---3/5-------5/7-------12\-----|-3---3/5-------5/7-------5\3-0-----|
C|-------------0---------0---------|-------------0---------0-----------| 
G|---0-------0---------0---------0-|---0-------0---------0---------0---|  
                                                                       
A|---------0---------0---------0---|---------0-------------------|  
E|-3---3/5-------5/7-------12\-----|-3---3/5-------5\3\0---------|      
C|-------------0---------0---------|-------------0-------2\0-0---|      
G|---0-------0---------0---------0-|---0-------0-----------------|

[Verse 1]
C               Dm                          G
This spring is gonna be the best one since 1981
               C/D       C/B    Dm
Or so they've all been saying that
                             G
Might just buy me one of them Maine Coon cats
        C          C/B          Am     C/B        Dm      G
And serenade him basking in the sun on my front porch

[Chorus] 
        F                     
I'm not sleeping tonight                                            
     C                                  
Sit back and watch the sunset work its magic in its own true light  
        F                  G
I'm not sleeping tonight
               C/D  C/B  Am  C/B
So come on over               

[Verse 2]
C                Dm     
You'll make a butter lettuce salad
           G                   C/D       C/B        Dm
With all natural ingredients, except for cottage cheese
                          G             C
It's from the factories at our grocery store
                  C/B           
We’ll stock their coolers with them
        Am         C/B              Dm         G
We'll pick up sometimes when we run low

[Chorus]
       F
I'm not sleeping tonight
      C
Sit back and watch the sunset work its magic in its own true light
       F                  G
I'm not sleeping tonight
                 C/D  C/B  Am  C/B
So come on over

[Bridge]
Dm               G7
Maybe I'll just slip into the moonlight
      C                 C/B             Am
And catch a trail of stardust in your eyes
C/B
Oh oh oh oh
Dm              G7                           C  C/B  Am  C/B  Dm
Maybe I'll just fall ever more in love with you
                G
Maybe I'll just fall 

[Final Chorus]
       F
I'm not sleeping tonight
     C
Sit back and watch the sunset work its magic in its own true light
         F               G
I'm not sleeping tonight
                C
So come on over
           F                G
No, I'm not sleeping tonight
              C
Come on over

[Outro]
A|---------0-----------0---------0-----|---------0-----------0-----------------|
E|-3---3/5-------5-5/7-------12\---5\3-|-3---3/5-------5-5/7-------5\3\0-3-----|
C|---0---------0-----------0-----------|---0---------0-----------0-------------|
G|-----------0-----------0-------------|-----------0-----------0-----------0---|

A|---------0-----------0---------0-----|---------0-------------------|
E|-3---3/5-------5-5/7-------12\---5\3-|-3---3/5-------5-3\0---------|
C|---0---------0-----------0-----------|---0---------0-------2\0-0---|
G|-----------0-----------0-------------|-----------0-----------------|

A|-----7-----5-----7-----7-----5-----7-|-----5-----3-----5-----5-----3-----5----|
E|---3-----3-----3-----3-----3-----3---|---3-----3-----3-----3-----3-----3------|  
C|-5-----5-----5-----5-----5-----5-----|-4-----4-----4-----4-----4-----4--------| 
G|-------------------------------------|----------------------------------------|

A|-----7-----5-----7-----7-----5-----7---|
E|---3-----3-----3-----3-----3-----3-----| 
C|-5-----5-----5-----5-----5-----5-------|
G|---------------------------------------|

A|---------0-----------0---------0-----|---------0-----------0-----------------|
E|-3---3/5-------5-5/7-------12\---5\3-|-3---3/5-------5-5/7-------5\3\0-3-----|
C|---0---------0-----------0-----------|---0---------0-----------0-------------|
G|-----------0-----------0-------------|-----------0-----------0-----------0---|  
                                                                                   
A|---------0-----------0---------0-----|---------0-------------------|            
E|-3---3/5-------5-5/7-------12\---5\3-|-3---3/5-------5-3\0---------|           
C|---0---------0-----------0-----------|---0---------0-------2\0-0---|           
G|-----------0-----------0-------------|-----------0-----------------|



************************************

| /  Slide up
| \  Slide down
 

************************************

            
            
Suggest correction
Creating personal tab
Creating personal tab
You can edit any tab online and save it as your Personal.

You can edit, replace or remove any tab part or add personal notes – all changes will be seen only by you.

Personal tabs can be accessed anytime from any device, even offline.
Learn more »
comments
print report bad tab
guest
You may want to rate the tab now too:
select rating
Wanna post a correction for this tab? Suggest correction