Oops, an error
Loading. Please wait.

Sleigh Ride Bass Tab

version 1
version 1

Whole song

Interactive

10,308 views 1 this week
1 commentread comment
1 2 3 4 5
excellent!
x 9
add to favorites
launch autoscroll
font size
0
reset
guitar tuner
Autoscroll
slow
fast
+/-
esc
set tempo
stop
Help us to improve Ultimate-Guitar.com Take our survey!
×
Author
Artist: Relient K
Album: Let it Snow Baby... Let it Reindeer
Song: Sleigh Ride

G|------------------------------------------------------------------| 
D|---6-------7-------6-------7--------6-------7-------6-------7-----|
A|/7-----7-9-----6-7-----7-9-----6--7-----7-9-----6-7-----7-9-----6-|
E|-----9-------7-------9-------7--------9-------7-------9-------7---|
                                    (piano joins in)
 "Just hear those sleigh bells jiggling..."
G|---------------------------------| 
D|---6-------7-------6-------7-----| 
A|-7-----7-9-----6-7-----7-9-----6-| 
E|-----9-------7-------9-------7---|
    (repeat throughout 1st verse)

"Giddy-up, giddy-up, giddy up lets go..."

Chorus
G|----------------------------------------------------| 
D|----------------------------------------------------|
A|------------------1-1-1111/6-6-6666-----3-4-6-4-3---|
E|4-4-4444-4-4-4444-------------------4-6-----------6-|
                                    
G|----------------------------------------------------|
D|----------------------------------------------------|
A|---------4-4-4444-----------------------------------|
E|4-4-4444----------2-2-2222-2-2-2222-----------------|

"We're gliding along to a song of our..."

"...wintry fairy land."
G|--------------|
D|-----/9-9-9-9-|
A|2---2---------|
E|--------------|

Repeat intro/verse for the next verse and instrumental.

"giddy-up, giddy-up, giddy-up, lets go."
G|------------------|
D|------------------|
A|---------6-6-6666-|
E|4-4-4444----------|

repeat chorus

"Just hear those sleigh bells jiggling..."

G|------------------|
D|--------4---------|
A|2-----------------|
E|----4-------2-----|




Suggest correction new What's this?
You can suggest a correction to this tab. Community and Mods will review your correction and vote to approve or reject it.
comments
print report bad tab
1 comment total.
0 reply
NotEnuFrets 50 wrote on April 6 2011, 05:37 pm

great walking bass line, fun to play, thanx for tabbing :D

guest
You may want to rate the tab now too:
select rating
Please do not post tabs as comments. Select "correction" instead!