Oops, an error
Loading. Please wait.

These Words Are Not Enough Tab

2,436 views 1 this week
no commentswrite comment
1 2 3 4 5
please rate
add to favorites
launch autoscroll
font size
0
reset
how to read this tab
guitar tuner
Tab Pro tools
  • play this tab
  • loop segment
  • change instrument
  • show fretboard
  • metronome
×
Best way to learn
"These Words Are Not Enough"
Autoscroll
slow
fast
+/-
esc
set tempo
stop
Band: Relient K
Written by: Matthew Hoopes
Song: Those Words Are Not Enough
Album: Antanomy of the Tongue and Cheek
Tabbed by: Sully

                      Intro x2
---------------------------------------------------------|
---------------------------------------------------------|
-----4-66-44-2------6-4-22------4-66-44----2xxxxxxxxxxxx-|
2-22-4-66-44-2-2-22-6-4-22-2-22-4-66-44----2xxxxxxxxxxxx-|
2-22-2-44-22-0-2-22-4-2-00-2-22-2-44-22----0xxxxxxxxxxxx-|
0-00-----------0-00--------0-00--------------------------|

Verse1x The 2nd time you play this it's all muted except
-----------------------------------------|----------|
-----------------------------------------|----------|
6xxxxxxxxxxxx---------------2xxxxxxxxxxxx|------4-44|
6xxxxxxxxxxxx-6xxxxxxxxxxxx-2xxxxxxxxxxxx|-2-22-4-44|<-this
4xxxxxxxxxxxx-6xxxxxxxxxxxx-0xxxxxxxxxxxx|-2-22-2-22|
--------------4xxxxxxxxxxxx--------------|-0-00-----|

 x1 Guitar2 plays this once after Gt1 plays first part once
----------------------------------|
--12---12---10--------------------|
9----9----9-----------------------|
----------------------------------|
----------------------------------|
----------------------------------|

Verse2 x11     Gt2 plays this after the 3rd,6th,and last time
-------------|----------12------------|Gt1 plays verse
-------------|--12---12---------------|
6-44-6-4-66--|9----9------------------|
6-44-6-4-66--|------------------------|
4-22-4-2-44--|------------------------|
-------------|------------------------|

Chorus x2
---------------------|
---------------------|
--------------2222---|
22222222-6666-2222---|
22222222-6666-0000---|
00000000-4444--------|

Intro x1
-----------------------------------------------------|
--------------------------------------------------5--|
-----4-66-44-2------6-4-22------4-66-44-2---4---4----|
2-22-4-66-44-2-2-22-6-4-22-2-22-4-66-44-2-2---2------|
2-22-2-44-22-0-2-22-4-2-00-2-22-2-44-22-0------------|
0-00-----------0-00--------0-00----------------------|

Verse1 Gt1 plays this x2        Gt2 plays this x2 muted
-------------------------|---------------------------------------|----------|
--12---12---10-----------|---------------------------------------|----------|
9----9----9---------4-44-|666666666666--------------222222222222-|-----4-44-|
---------------2-22-4-44-|666666666666-666666666666-222222222222-|2-22-4-44-|
---------------2-22-2-22-|444444444444-666666666666-000000000000-|2-22-2-22-|
---------------0-00------|-------------444444444444--------------|0-00------|

Bridge x2
------------------------------------------------------------------|
------------------------------------------------------------------|
--------------2xxxxxxxxxxx---------------4xxxxxxxxxxxx---44444444-|
6xxxxxxxxxxxx-2xxxxxxxxxxx-2xxxxxxxxxxxx-4xxxxxxxxxxxx---44444444-|
6xxxxxxxxxxxx-0xxxxxxxxxxx-2xxxxxxxxxxxx-2xxxxxxxxxxxx---22222222-|
4xxxxxxxxxxxx--------------0xxxxxxxxxxxx--------------------------|

Chorus x4
-------------------|
-------------------|
--------------2222-|
22222222-6666-2222
22222222-6666-0000
00000000-4444-----

Verse2 x8
------------|---------12----|
------------|--12---12------|
6-44-6-4-66-|9----9---------|
6-44-6-4-66-|---------------|
4-22-4-2-44-|---------------|
------------|---------------|

This x1
---------------------------------|
---------------------------------|
----------------2222-------------|
22~-222222-6666-2222-------------|
22~-222222-6666-0000-------------|
00~-000000-4444------------------|

Chorus x8
-------------------------------|
-------------------------------|
--------------2222-------------|
22222222-6666-2222-------------|
22222222-6666-0000-------------|
00000000-4444------------------|
comments
We did not receive enough feedback on this tab! Please rate:
print report bad tab
1 2 3 4 5
I want to post or [tab]
guest
You may want to rate the tab now too:
select rating
Please do not post tabs as comments. Select "correction" instead!