Oops, an error
Loading. Please wait.

This Week The Trend Bass Tab

version 1
version 1

Whole song

Interactive

1,012 views 3 this week
no commentswrite comment
1 2 3 4 5
please rate
add to favorites
launch autoscroll
font size
0
reset
guitar tuner
Autoscroll
slow
fast
+/-
esc
set tempo
stop
Help us to improve Ultimate-Guitar.com Take our survey!
×
Tabbed By : 
e-mail: 

Tuning:

G|---------------------------------------------------------------------------|
D|---------------------------------------------------------------------------|
A|----------------4~44444444444--4~44444444444-------------------------------|
E|-4~44444444444--------------------------------4~44444444444----------------|

G|---------------------------------------------------------------------------|
D|---------------------------------------------------------------------------|
A|----------------4~44444444444--4~44444444444-------------------------------|
E|-4~44444444444-------------------------------------------------------------|

0:23

G|---------------------------------------------------------------------------|
D|--------------------------------------------------------------------x2-----|
A|-----------------4444444444444444----------------1111111133333333----------|
E|-4444444444444444----------------1111111111111111--------------------------|

0:45

G|---------------------------------------------------------------------------|
D|---------------------------------------------------------------------------|
A|-3333333344444444--------666666663333333344444444--------66666666----------|
E|-----------------44444444------------------------44444444------------------|

0:55

G|---------------------------------------------------------------------------|
D|---------------------------------------------------------------------------|
A|-----------------44444444666666664444444444444444--------------------------|
E|-1111111122222222----------------------------------------------------------|

1:03

G|---------------------------------------------------------------------------|
D|---------------------------------------------------------------------------|
A|-----------------4444444444444444----------------1111111133333333----------|
E|-4444444444444444----------------1111111111111111--------------------------|

1:13

G|---------------------------------------------------------------------------|
D|---------------------------------------------------------------------------|
A|------------------------------4~44444444444--4~44444444444-----------------|
E|-4~44444444444--4~44444444444----------------------------------------------|

1:24

G|---------------------------------------------------------------------------|
D|---------------------------------------------------------------------------|
A|-----------------4444444444444444----------------1111111133333333----------|
E|-4444444444444444----------------1111111111111111--------------------------|

1:35

G|---------------------------------------------------------------------------|
D|---------------------------------------------------------------------------|
A|-3333333344444444--------666666663333333344444444--------66666666----------|
E|-----------------44444444------------------------44444444------------------|

1:45

G|---------------------------------------------------------------------------|
D|---------------------------------------------------------------------------|
A|-----------------44444444666666664444444444444444--------------------------|
E|-1111111122222222----------------------------------------------------------|

1:53

G|---------------------------------------------------------------------------|
D|---------------------------------------------------------------------------|
A|-----------------4444444444444444----------------1111111133333333----------|
E|-4444444444444444----------------1111111111111111--------------------------|

2:07

G|---------------------------------------------------------------------------|
D|---------------------------------------------------------------------------|
A|-44444444--------66666666--------44444444--------66666666-----------x2-----|
E|---------44444444--------66666666--------44444444--------66666666----------|

2:29

G|---------------------------------------------------------------------------|
D|---------------------------------------------------------------------------|
A|-44444444444444444444444444444444------------------------------------------|
E|---------------------------------------------------------------------------|

2:34

G|---------------------------------------------------------------------------|
D|---------------------------------------------------------------------------|
A|-----------------------------x7----------------------------------------------|
E|-4~44444444444-------------------------------------------------------------|


| /  slide up
| \  slide down
| h  hammer-on
| p  pull-off
| ~  vibrato
| +  harmonic
| x  Mute note
===============================================================================
Suggest correction
Give kudos to tab author, rate the tab!
1 2 3 4 5
comments
print report bad tab
guest
You may want to rate the tab now too:
select rating
Wanna post a correction for this tab? Suggest correction