Oops, an error
Loading. Please wait.

Those Words Are Not Enough Bass Tab

version 1
version 1

Whole song

Interactive

939 views 6 this week
no commentswrite comment
1 2 3 4 5
please rate
add to favorites
launch autoscroll
font size
0
reset
guitar tuner
Tab Pro tools
  • play this tab
  • loop segment
  • change instrument
  • show fretboard
  • metronome
×
Best way to learn
"Those Words Are Not Enough"
Autoscroll
slow
fast
+/-
esc
set tempo
stop
Contributor
Difficulty
novice
|---------------------------|
|---------------------------|
|------2442----420----2442-0| x2
|--0-00----0-00---0-00------|


|---------------------------|
|---------------------------|
|---------------------------|
|---9----4----5---0-00--7777|


|---------------------------|
|---------------------------|
|---------------------------|
|-9999-4444-5555--0-00-7777-|


|---------------------------|
|---------------------------|
|---------------------------|
|-9999--7777--5555--7777----|


|---------------------------|
|---------------------------|
|---------------------------|
|9999-1112-7777-5555-7777---|


|---------------------------|
|---------------------------|
|---------------------------|
|-9999-7777-5555-7777-------|


|---------------|
|---------------|
|---------------| x2
|-0000-4444-5555|


|---------------------------|
|---------------------------|
|------2442----420----2442-0|
|--0-00----0-00---0-00------|


|---------------------------|
|---------------------------|
|---------------------------| x2
|-9999-4444-5555--0-00-7777-|


|------------------------------------------|
|------------------------------------------|
|------------------------------------------|
|4444--5555--0000--7777-4444-5555-0000-7777|


|---------------|
|---------------|
|---------------| x4
|00000-4444-5555|


|---------------------------|
|---------------------------|
|---------------------------|
|-9999-7777-5555-7777-------|



|---------------------------|
|---------------------------|
|---------------------------|
|9999-1112-7777-5555-7777---|


|--------------|
|--------------|
|--------------|
|--0--4444-5555|


|---------------|
|---------------|
|---------------| x8
|00000-4444-5555|


|-----------------|
|-----------------|
|-----------------|
|-0000-4444-55567-|
comments
We did not receive enough feedback on this tab! Please rate:
print report bad tab
1 2 3 4 5
I want to post or [tab]
guest
You may want to rate the tab now too:
select rating
Please do not post tabs as comments. Select "correction" instead!