Oops, an error
Loading. Please wait.

Trademark Bass Tab

version 1
version 1

Whole song

Interactive

324 views 1 this week
no commentswrite comment
1 2 3 4 5
worth learning
x 1
add to favorites
launch autoscroll
font size
0
reset
guitar tuner
Tab Pro tools
  • play this tab
  • loop segment
  • change instrument
  • show fretboard
  • metronome
Autoscroll
slow
fast
+/-
esc
set tempo
stop
Contributor
Trademark - Relient K
Bass Tab (Drop D Tuning)

G|-----|-------------------------------------------------------------| 
D|-----|-------------------------------------------------------------|
A|-----|-------------------------------------------------------------|  
D|---3-|-4--4------------4--4------------0--0----------0--0----------| 4x


G|-----------------------------------------------------------------------|
D|------------11--9--14--12--11------------9-----------7-----------------|
A|-----0--------------------------------7-----6-----5------4-------------|
D|-----------------------------------------------------------------------| 2x


G|-----------------------------------------------------------------|
D|-----------------------------------------------------------------|
A|-0-0-0-0-0-0-0-0-7-7-7-7-7-7-7-7-9-9-9-9-9-9-9-9-5-5-5-5-5-5-5-5-|
D|-----------------------------------------------------------------| 2x


G|----------------------------------------------------------------------|
D|-------------------------------0-----0-0------------------------------|
A|---------------0----0-0-----------------------------------------------|
D|---4----4-4------------------------------2------2-2-------------------| 2x 



------------------------------------------------------------------------|
------------------------------------------------------------------------|
A|----------------------------------------------------------------------|
D|-----4------------2------------0--------------------------------------| 1x


G|-------------------------------------------------------------------------|
D|-------------------0-0-0-0-0-0-0-0---------------------0-0-0-0-0-0-0-0---|
A|-0-0-0-0-0-0-0-0---------------------0-0-0-0-0-0-0-0---------------------|
D|-------------------------------------------------------------------------|






G| ------------------------------------------------------------------------|
D|-4--4--4--4--3--3--3--3--2--2--2--2--1--1--1--1--------------------------|
A|------------------------------------------------5-5---------5-5-5--------|
D| ----------------------------------------------------0-0-0---------0-0---|



G|----7--7--7--7-----------------------------------------|
D|-------------------------4---2-------------------------|
A|-------------------------------------------------------|
D|-------------------------------------------------------| 4x

comments
We did not receive enough feedback on this tab! Please rate:
print report bad tab
1 2 3 4 5
I want to post or [tab]
guest
You may want to rate the tab now too:
select rating
Please do not post tabs as comments. Select "correction" instead!