Oops, an error
Loading. Please wait.

Truth Bass Tab

385 views 1 this week
no commentswrite comment
1 2 3 4 5
1 last vote to show rating
add to favorites
launch autoscroll
font size
0
reset
guitar tuner
Autoscroll
slow
fast
+/-
esc
set tempo
stop
Help us to improve Ultimate-Guitar.com Take our survey!
×
Author
Difficulty
novice
“the truth” by relient k
CD: Apathetic EP
Tabbed by Alex Weymier

Intro x2
G-------------------------------------|
D-------------------------------------|
A-44444444----------------------------|
E----------44444444-22222222-22222222-|


Verse 1 (played longer than u think)
G-------------------------------------------------------------------------|
D-------------------------------------------------------------------------|
A-44444444----------------------------44444444----------------------------|
E----------66666666-22222222-44444444----------22222222-66666666-44444444-|

Pre-Chorus: (guitar 1: clean)
Same as Intro x2

Chorus (played slower)
G----------------------------|
D----------------------------|
A-44444444-------------------|
E----------44444444-22222222-|

Intro

Verse 2 (played longer than u think)
Same as verse 1

Chorus 2 (played slower)
G--------------------------------------------------------------|
D--------------------------------------------------------------|
A-44444444-------------------4444------44444444----------------|
E----------44444444-22222222------4444----------44444444-2~-4~-|

Bridge
|clean x3---------------|
G-----|-----|-----|-----|
D-----|-----|-----|-----|
A-4~--|-----|-----|-----|
E-----|-4~--|-2~--|-2~--|

“let go!!!” (played slower)
G--------------------------------------------------------|
D--------------------------------------------------------|
A-44444444-------------------4444------44444444----------|
E----------44444444-22222222------4444----------44444444-|

Then (held out notes)
G----------------------------|
D----------------------------|
A-------------4------------4-|
E-2---4---2-------(rest)-----|
                         end
Suggest correction
Give kudos to tab author, rate the tab!
1 2 3 4 5
comments
print report bad tab
guest
You may want to rate the tab now too:
select rating
Wanna post a correction for this tab? Suggest correction