Oops, an error
Loading. Please wait.

Truth Tab

version 2
version 2

Whole song

408 views 1 this week
no commentswrite comment
1 2 3 4 5
please rate
add to favorites
launch autoscroll
font size
0
reset
how to read this tab
guitar tuner
Tab Pro tools
  • play this tab
  • loop segment
  • change instrument
  • show fretboard
  • metronome
Autoscroll
slow
fast
+/-
esc
set tempo
stop
Relient K
The Truth
The Apathetic EP
tabbed by Andy Choly (jesus_lova@hotmail.com)

Intro:
Guitar 1:
eb|---------------------------------------xxxxxx|
Bb|---------------------------------------xxxxxx|
Gb|-7----6---------7--9-12---9------------xxxxxx|
Db|-x----x---------x--x-x----x------------xxxxxx|
Ab|-5----4---------5--7-10---11-----------xxxxxx|
Eb|---------------------------------------xxxxxx|
    1234 1234 1234 1234 1234 1234 1234 123& 4

Guitar 2:
eb|---------------------------------------xxxxxx|
Bb|---------------------------------------xxxxxx|
Gb|-7-----------------------------7-------xxxxxx|
Db|-7---------2---------5---------7-------xxxxxx|
Ab|-5---------2---------5---------5-------xxxxxx|
Eb|-----------0---------3-----------------xxxxxx|
    1234 1234 1234 1234 1234 1234 1234 123& 4

Verse 1:
both guitars:
eb|------------------------------------------|
Bb|------------------------------------------|
Gb|-7--4----------7-----4--------------------|
Db|-7--4--5--7*---7--5--4--7-----------------|
Ab|-5--2--5--7*---5--5--2--7-----------------|
Eb|-------3--5*------3-----5-----------------|

*here i think there may be a split of the guitars
with guitar 1 holding the power chord and guitar 2 doing this
Gb|--7-6--------|
Db|--x-x--------|
Ab|--5-4--------|

also there sounds like there's a higher guitar part going on for most of the
verse, but i'm not tabbing it right now, i'll get it in the corrections box

anyways, moving on

Pre-Chorus:

for the first part there's no guitar, but the chords are (relative to tuning)
G - A - Bm

then
Guitar 1:
Gb|-7-(x alot)--------|


Chorus 1:
Guitar 1:
eb|---------------------------------------|
Bb|---------------------------------------|
Gb|-7-------------------------------------|
Db|-x-----(x alot alot)-------------------|
Ab|-5-------------------------------------|
Eb|---------------------------------------|
    1234 1234 1234 1234 1234 1234

Guitar 2:
eb|---------------------------------------|
Bb|---------------------------------------|
Gb|-----------7---------------------------|
Db|-5---------7----7----2----5------------|
Ab|-5---------5----7----2----5------------|
Eb|-3--------------5----0----3------------|
    1234 1234 1234 1234 1234 1234

repeat intro

repeat verse (but no guitar for the first half)

Chorus 2:
Guitar 1:
eb|----------------------------------------|
Bb|----------------------------------------|
Gb|-7--------------------------------------|
Db|-x------(x alot alot alot)--------------|
Ab|-5--------------------------------------|
Eb|----------------------------------------|
    1234 1234 1234 1234 1234 1234 1234 1234

Guitar 2:
eb|----------------------------------------|
Bb|----------------------------------------|
Gb|-----------7-------------------7--------|
Db|-5---------7----7----2----5----7----7---|
Ab|-5---------5----7----2----5----5----7---|
Eb|-3--------------5----0----3---------5---|
    1234 1234 1234 1234 1234 1234 1234 1234

repeat chorus 1

Bridge:
Chords (relative to tuning):
Em        Bm   A    G         A       Bm*
1234 1234 1234 1234 1234 1234 1234 1234
then repeat (*first time only)

Acoustic Guitar:
eb|---------------------------------------|
Bb|---------------------------------------|
Gb|---------444---------------------------|
Db|-222-222-444-777-555-555-777-777-44----|
Ab|-222-222-222-777-555-555-777-777-22----|
Eb|-000-000-----555-333-333-555-555-------|
    ..  ..  ..  ..  ..  ..  ..  ..
Acoustic (cont'd)
eb|----------------------------------------------------|
Bb|----------------------------------------------------|
Gb|---------444----------------------------------------|
Db|-222-222-444-777-5555555555555557777777777777777----|
Ab|-222-222-222-777-5555555555555557777777777777777----|
Eb|-000-000-----555-3333333333333335555555555555555----|
    ..  ..  ..  ..  ...........................
those may actually be full chords, not power chords, but whatever
the strumming pattern's still the same

Clean Guitar:
eb|---------------------------------------|
Bb|--7--7---------------------------------|
Gb|---------------------------------------|
Db|--------9--7--5--5--7--7-99------------|
Ab|-------------------------xx------------|
Eb|-0--0--7--5--3--3--5--5--77------------|
Clean (cont'd)
eb|---------------------------------------|
Bb|--7--7---------------------------------|
Gb|---------------------------------------|
Db|--------9--7--5--5--7--7---------------|
Ab|---------------------------------------|
Eb|-0--0--7--5--3--3--5--5----------------|

the distorted guitar joins in on the G - A palm muting with the Acoustic

then it's back to:
repeat chorus 1
repeat chorus 2
then the ending of the chorus again
Db|--2---5------|
Ab|--2---5------|
Eb|--0---3------|

then once more with just acoustic chords (Em G)

then end on
Gb|--7------|
Db|--7------|
Ab|--5------|
comments
We did not receive enough feedback on this tab! Please rate:
print report bad tab
1 2 3 4 5
I want to post or [tab]
guest
You may want to rate the tab now too:
select rating
Please do not post tabs as comments. Select "correction" instead!