Oops, an error
Loading. Please wait.

Truth Tab

version 3
version 3

Whole song

237 views 1 this week
no commentswrite comment
1 2 3 4 5
please rate
add to favorites
launch autoscroll
font size
0
reset
how to read this tab
guitar tuner
Tab Pro tools
  • play this tab
  • loop segment
  • change instrument
  • show fretboard
  • metronome
×
Best way to learn
"Truth"
Autoscroll
slow
fast
+/-
esc
set tempo
stop
Contributor
Difficulty
intermediate
----------------------------------------------------------------------------
                                 The Truth
----------------------------------------------------------------------------
                                                                            
Intro:                                                                      
e---------------------------------------------------------------|
B---------------------------------------------------------------|
G-66666666-55555555555555-66666666-88-11111111-10101010-66666666|
D-xxxxxxxx-xxxxxxxxxxxxxx-xxxxxxxx-xx-xxxxxxxx-xxxxxxxx-xxxxxxxx|
A-44444444-33333333333333-44444444-66-99999999-88888888-44444444|
E---------------------------------------------------------------|
                                      ^^^^^^^^---- 11s not 1s
Verse 1: Long and drawn out
e-------------------------------------------------------------------------|
B-------------------------------------------------------------------------|
G-66666666----------------------------66666666----------------------------|
D-66666666-88888888-44444444-66666666-66666666-44444444-88888888-66666666-|
A-44444444-88888888-44444444-66666666-44444444-44444444-88888888-66666666-|
E----------66666666-22222222-44444444----------22222222-66666666-44444444-|

Pre-Chorus: (clean)
                
e-----------------|
B-----------------|
G-6~-------6-6-6-6|
D-6~6~4~4~4-4-4-4-|
A-4~6~4~4~--------|
E---4~2~2~--------|

Pre-Chorus: (w/ distortion)
e-----------------------------------------|
B-----------------------------------------|
G---------66666666------------------------|
D---------66666666666666664444444444444444|
A---------44444444666666664444444444444444|
E-----------------444444442222222222222222|
        PM--------------------------------

Chorus (slowly)
e----------------------------|
B----------------------------|
G-66666666-------------------|
D-66666666-66666666-44444444-|
A-44444444-66666666-44444444-|
E----------44444444-22222222-|

Intro played again

Verse 2: Long and drawn out
(Clean) (distorted)
e----------------------------------------------|
B----------------------------------------------|
G-6-------66666666-----------------------------|
D-6-8-4-6-66666666-44444444-88888888-66666666--|
A-4-8-4-6-44444444-44444444-88888888-66666666--|
E---6-2-4----------22222222-66666666-44444444--|
          PM-----------------------------------|

Chorus 2 (slowly)
e--------------------------------------------------------------|
B--------------------------------------------------------------|
G-66666666-------------------6666------66666666----------------|
D-66666666-66666666-44444444-6666-6666-66666666-66666666-4~-6~-|
A-44444444-66666666-44444444-4444-6666-44444444-66666666-4~-6~-|
E----------44444444-22222222------4444----------44444444-2~-4~-|

Bridge
|clean x3---------|
e-----------------|
B-----------------|
G-----------------|
D---6~------------|
A-4~----6~--4~--4~|
E-----4~--2~--2~--|

This is the part when he screams: "Let Go" (Slow)
e--------------------------------------------------------|
B--------------------------------------------------------|
G-66666666-------------------6666------66666666----------|
D-66666666-66666666-44444444-6666-6666-66666666-66666666-|
A-44444444-66666666-44444444-4444-6666-44444444-66666666-|
E----------44444444-22222222------4444----------44444444-|

Guitar 2 Plays C# throughout
e---
B---
G-6-
D-x-
A-4-
E---

Then (all notes are held out)
e----------------------------|
B----------------------------|
G-------------6------------6-|
D-4---6---4---6----4---6---6-|
A-4---6---4---4----4---6---4-|
E-2---4---2--------2---4-----|
comments
We did not receive enough feedback on this tab! Please rate:
print report bad tab
1 2 3 4 5
I want to post or [tab]
guest
You may want to rate the tab now too:
select rating
Please do not post tabs as comments. Select "correction" instead!