Oops, an error
Loading. Please wait.

Up And Up Bass Tab

version 1
version 1

Whole song

Interactive

850 views 1 this week
1 commentread comment
1 2 3 4 5
2 more votes to show rating
add to favorites
launch autoscroll
font size
0
reset
guitar tuner
Autoscroll
slow
fast
+/-
esc
set tempo
stop
Help us to improve Ultimate-Guitar.com Take our survey!
×
Author
Difficulty
intermediate
-------------------------------------------------------------------------------
			     UP AND UP - Relient K
-------------------------------------------------------------------------------

Watch the speeds! Different parts are in different speeds because it made 
it easier to tab them, so try to listen to the song to understand how fast 
when.

Tabbed By : that stupid kid that hates pickles that aren't dill (aka me, Ducky)
e-mail: why? okay scariestmonster@gmail.com

Tuning: Standard, Key of C


SIMPLE TAB
(Come in with the drums)


Intro
G|-----------5---------------------------------------------------------------|
D|---2---3-------3---2---3---5---2--or---------0-0-0-0-3-3-3-3---------3-----|
A|-3---3---3---3---3---3---3---3-------3-3-3-3-----------------3-3-3-3-------|
E|---------------------------------------------------------------------------|


Verse
G|---------------------------------------------------------------------------|
D|-----------------0-0-0-0-0-0-0-0-3-3-3-3-3-3-3-3---------------------------|
A|-3-3-3-3-3-3-3-3---------------------------------3-3-3-3-3-3-3-3-----------|
E|---------------------------------------------------------------------------|
  Yesterday, is not quite what it could've been, as were most of all the days 
  before
G|---------------------------------------------------------------------------|
D|-----------------0-0-0-0-0-0-0-0-3-3-3-3-3-3-3-3---------------------------|
A|-3-3-3-3-3-3-3-3---------------------------------3-3-3-3-3-3-3-3-----------|
E|---------------------------------------------------------------------------|
  But I swear today, with every breath I'm breating in, I'll be trying to make 
  it so much more


Pre-Chorus
G|-----------x-----------x-----------x-x-x-------------------x-----0-----x---|
D|---------3-x---------5-x---------7-x-x-x-----7-----------3-x---2---2---x---|
A|---3---3---x---5---5---x---7---7---x-x-x---7---7---3---3---x-3-------3-x---|
E|-1---1-----x-3---3-----x-5---5-----x-x-x-5-------1---1-----x-----------x-3~|
  Cause it seems I get so hung upon, the history of what's gone wrong, and 
  that the hope of a new day is sometimes hard to see
G|-------------5-4-----------------------------------------------------------|
D|-----------------------------7-5-----------2-------0-----------------------|
A|-----------------------------------------3---3---2---2---2-2-3-2-----------|
E|-1-1-1-1-3-3-----5-5-5-5-5-5-----1-1-1-1-------3-------3--3----------------|
  But I'm finally catching on to it, yeah the past is just a conduit, and the
  life there at the end is where I'll be, cause I'm on the
G|---------------------------------------------------------------------------|
D|---------------------------------------------------------------------------|
A|-3-x-3-x-3-x-3-x-5-x-5-x-5-x-5-x-7-7-9-9/10-x-12-x-10-x-9-x----------------|
E|---------------------------------------------------------------------------|  X2
  Up and up, I'm on the up and up, and I haven't given up, given up on what, 
  I know I'm capable of, yeah I'm on the
G|---------------------------------------------------------------------------|
D|-----------------0-0-0-0-0-0-0-0-2-2-2-4-4-4-5-5-5-7-7-5-5-4-4-------------|
A|-3-3-3-3-3-3-3-3-----------------------------------------------------------|
E|---------------------------------------------------------------------------|
  Up and up, yeah there's nothing left to prove, cause 
G|-0-0-0-0-------------------------------------------------------------------|
D|---------4-4-4-4-2-2-2-2-0-0-0-0-----------------0-0-0-5-4-----------------|
A|---------------------------------3-3-3-3-3-3-3-3---------------------------|
E|---------------------------------------------------------------------------|
  I'm just trying to be a better version of me for you, a better version of me
  for you
G|---------------------------------------------------------------------------|
D|-----------------0-0-0-0-0-0-0-0-3-3-3-3-3-3-3-3---------------------------|
A|-3-3-3-3-3-3-3-3---------------------------------3-3-3-3-3-3-3-3-----------|
E|---------------------------------------------------------------------------|
  To the prosperous would not require much of me, you see contentment is the 
  one thing it entails
G|---------------------------------------------------------------------------|
D|-----------------0-0-0-0-0-0-0-0-3-3-3-3-3-3-3-3---------------------------|
A|-3-3-3-3-3-3-3-3---------------------------------3-3-3-3-3-3-3-3-----------|
E|---------------------------------------------------------------------------|
  To be content with where I am, and getting where I need to be, and moving 
  past the past where I have failed
G|-------------5-4-----------------------------------------------------------|
D|-----------------------------7-5-----------2-------0-----------------------|
A|-----------------------------------------3---3---2---2---2-2-3-2-----------|
E|-1-1-1-1-3-3-----5-5-5-5-5-5-----1-1-1-1-------3-------3--3----------------|
  But I'm finally catching on to it, yeah the past is just a conduit, and the 
  life there at the end is where I'll be, oh, cause I'm on the
G|---------------------------------------------------------------------------|
D|-----------------0-0-0-0-0-0-0-0-2-2-2-4-4-4-5-5-5-7-7-5-5-4-4-------------|
A|-3-3-3-3-3-3-3-3-----------------------------------------------------------|
E|---------------------------------------------------------------------------|
  Up and up, yeah I'm on the up and up, and I haven't given up, given up on 
  what, I know I'm capable of
G|---------------------------------------------------------------------------|
D|-----------------0-0-0-0-0-0-0-0-2-2-2-4-4-4-5-5-5-7-7-5-5-4-4-------------|
A|-3-3-3-3-3-3-3-3-----------------------------------------------------------|
E|---------------------------------------------------------------------------|
  Yeah I'm on the up and up, yeah there's nothing left to prove, cause 
G|-0-0-0-0-------------------------------------------------------------------|
D|---------4-4-4-4-2-2-2-2-0-0-0-0-----------------0-0-0-5-4-----------------|
A|---------------------------------3-3-3-3-3-3-3-3---------------------------|
E|---------------------------------------------------------------------------|
  I'm just trying to be a better version of me for you, a better version of 
  me, for you-
G|--------2---------------2---------------0---------------------------0------|
D|----2-----x---------3-----x---------2-----x---------0---x-x-----0-----3-2-0|
A|0-0---0---------0-0---0---------3-3---3---------2-2---------2-2---2--------|
E|---------------------------------------------------------------------------|
  Never cease, to supply me with what I need for a good life, So when I'm down 
  I will hold my head up high, cuase you're the reason why, you know I'm on 
  the
G|---------------------------------------------------------------------------|
D|-----------------0-0-0-0-0-0-0-0-2-2-2-4-4-4-5-5-5-7-7-5-5-4-4-------------|
A|-3-3-3-3-3-3-3-3-----------------------------------------------------------|
E|---------------------------------------------------------------------------|
  Up and up, yeah I'm on the up and up, and I haven't given up, given up on 
  what I know I'm capable of, yeah I'm on the
G|---------------------------------------------------------------------------|
D|-----------------0-0-0-0-0-0-0-0-2-2-2-4-4-4-5-5-5-7-7-5-5-4-4-------------|
A|-3-3-3-3-3-3-3-3-----------------------------------------------------------|
E|---------------------------------------------------------------------------|
  Up and up, yeah there's nothing left to prove, cause
G|---------------------------------------------------------------------------|
D|---------3-2---------------------------------------------------------------|
A|-3-2-0-------3-------------------------------------------------------------|
E|-------3-------3-1-3-------------------------------------------------------|
  I'm just trying to be a better version of me for you, (I'm just trying to be
  a better version of me for) 
G|---------------------------------------------------------------------------|
D|---------3-2-----3-2~------------------------------------------------------|
A|-3-2-0-------3-------------------------------------------------------------|
E|-------3-------3-----------------------------------------------------------|
  You
Suggest correction
Give kudos to tab author, rate the tab!
1 2 3 4 5
comments
print report bad tab
1 comment total.
0 reply
HawkBassNelson 91 Dec 18, 2010 08:40 PM

Good tab dude

guest
You may want to rate the tab now too:
select rating
Wanna post a correction for this tab? Suggest correction