Oops, an error
Loading. Please wait.

Up And Up Acoustic tab

version 4
version 4

Whole song

Interactive

175 views 6 this week
1 commentread comment
1 2 3 4 5
2 more votes to show rating
add to favorites
×
Save as Personal and add changes to this tab that will be seen only by you. Learn more ›
×
You can save this tab as Personal to edit and correct it or add notes. All changes will be seen only by you. Learn more »
launch autoscroll
font size
0
reset
how to read this tab
guitar tuner
edit
Autoscroll
slow
fast
+/-
esc
set tempo
stop
Author
-------------------------------------------------------------------------------
                             Up and Up acoustic - Relient K
-------------------------------------------------------------------------------
Tabbed by:Leah Brownson
E-mail:lbrownson@icloud.com
Tuning:standard


note: keep your index finger on the first fret of the G string.

strumming pattern Down Down,Up Up,Down,Up

Intro:

e|------------------------0--------------------------------------------------|
B|----------------------------------------------------------------0----------|
G|----1---------2-------------------2----------1---------2----------------2p1|
D|---------------------------------------------------------------------------|
A|---------------------------------------------------------------------------|
E|0--------0---------0---------0---------0---------0---------0---------0-----|

e|------------------------0--------------------------------------------------|
B|----------------------------------------------------------------0----------|
G|----1---------2-------------------2---------1---------2-----------------2p1|
D|---------------------------------------------------------------------------|
A|---------------------------------------------------------------------------|
E|2--------2---------2---------2---------2---------2---------2---------2-----|

e|------------------------0--------------------------------------------------|
B|----------------------------------------------------------------0----------|
G|----1---------2-------------------2---------1---------2-----------------2p1|
D|---------------------------------------------------------------------------|
A|0--------0---------0---------0---------0---------0---------0---------0-----|
E|---------------------------------------------------------------------------|

e|------------------------0--------------------------------------------------|
B|----------------------------------------------------------------0----------|
G|----1---------2-------------------2---------1---------2-----------------2p1|
D|---------------------------------------------------------------------------|
A|---------------------------------------------------------------------------|
E|0--------0---------0---------0---------0---------0---------0---------0-----|

(You can repeat this during the first verse or you can play the chords as provided below)


E                                        F#m
Yesterday is not quite what it could've been
A                                E
As were most of all the days before
E                                       F#m
But I swear today with every breath I'm breathing in
A                                 E
I'll be trying to make it so much more

         A              B                  C#m
Cause it seems I get so hung up on the history and what's gone wrong
        A                    E                 B
And the hope of a new day is sometimes hard to see 
               A                B
And though I'm finally catching onto it 
            C#m 
And now the past is just a conduit
        A                  E                 B
And the light there at the end is where I'll be

Chorus:
           A       B            C#m
I'm on the up and up, I'm on the up and up
              A                    B      C#m
And I haven't given up, given up on what I know I'm capable of
               A       B                 C#m
And I'm on the up and up    Yeah there's nothing left to prove 
      E                  B/D#        C#m        B      A
cause I'm just trying to be A better version of me for you
         Am                 E 
A better version of me for you

(The chords of the last line are optional)

(Intro)
e|------------------------0--------------------------------------------------|
B|----------------------------------------------------------------0----------|
G|----1---------2-------------------2----------1---------2----------------2p1|
D|---------------------------------------------------------------------------|
A|---------------------------------------------------------------------------|
E|0--------0---------0---------0---------0---------0---------0---------0-----|

e|------------------------0--------------------------------------------------|
B|----------------------------------------------------------------0----------|
G|----1---------2-------------------2---------1---------2-----------------2p1|
D|---------------------------------------------------------------------------|
A|---------------------------------------------------------------------------|
E|2--------2---------2---------2---------2---------2---------2---------2-----|

e|------------------------0--------------------------------------------------|
B|----------------------------------------------------------------0----------|
G|----1---------2-------------------2---------1---------2-----------------2p1|
D|---------------------------------------------------------------------------|
A|0--------0---------0---------0---------0---------0---------0---------0-----|
E|---------------------------------------------------------------------------|

e|------------------------0--------------------------------------------------|
B|----------------------------------------------------------------0----------|
G|----1---------2-------------------2---------1---------2-----------------2p1|
D|---------------------------------------------------------------------------|
A|---------------------------------------------------------------------------|
E|0--------0---------0---------0---------0---------0---------0---------0-----|


(you can continue to play this in the second verse or play the chords)

Verse 2:
E                                          F#m
Now I have all that I could ever need the 
A                                   E
Confidence of knowing there’s still time
                                           F#m 
To make a mend to try and build a better me and to 
A                                   E
Take the right steps as this road unwinds

            A                B                   C#m
You see I'm finally catching onto it and now the past is just a conduit
        A                  E                F#m    
And the light there at the end is where I'll be     Oh


Chorus:
           A       B            C#m
I'm on the up and up, I'm on the up and up
              A                    B      C#m
And I haven't given up, given up on what I know I'm capable of
               A       B                 C#m
And I'm on the up and up    Yeah there's nothing left to prove 
       E                  B/D#        C#m        B      A
'cause I'm just trying to be A better version of me for you
         Am                 E 
A better version of me for you


Bridge:

C#m                      A                        
You never cease to supply me with what I need for a good life
E                                     B
So when I'm down I'll hold my head up high 'cause you're the reason why
('cause you're the reason why)
 
Chorus:
           A       B            C#m
I'm on the up and up, I'm on the up and up
              A                    B      C#m
And I haven't given up, given up on what I know I'm capable of
               A       B                 C#m
And I'm on the up and up    Yeah there's nothing left to prove 
      E                  B/D#        C#m        B      A
cause I'm just trying to be A better version of me for you
         Am                 E 
A better version of me for you

        E                  B/D#        C#m        B      A(one strum)
'cause I'm just trying to be a better version of me for you

************************************

| /   slide up
| \   slide down
| h   hammer-on
| p   pull-off
| ~   vibrato
| +   harmonic
| x   Mute note
| b   Bend
| pb  Pre-bend
| br  Bend release
| pbr Pre-bend release
| brb Bend release bend

************************************
If you want anything changed, comment below. :) :D

            
            
Suggest correction
Creating personal tab
Creating personal tab
You can edit any tab online and save it as your Personal.

You can edit, replace or remove any tab part or add personal notes – all changes will be seen only by you.

Personal tabs can be accessed anytime from any device, even offline.
Learn more »
Give kudos to tab author, rate the tab!
1 2 3 4 5
comments
print report bad tab
1 comment total.
0 reply
brownson.lia 31 Jan 06, 2016 09:45 AM

This is one of the most accurate of tabs. I love it.

guest
You may want to rate the tab now too:
select rating
Wanna post a correction for this tab? Suggest correction