Oops, an error
Loading. Please wait.

Wake Up Call Tab

version 3
version 3

Whole song

275 views 1 this week
no commentswrite comment
1 2 3 4 5
please rate
add to favorites
launch autoscroll
font size
0
reset
how to read this tab
guitar tuner
Autoscroll
slow
fast
+/-
esc
set tempo
stop
Help us to improve Ultimate-Guitar.com Take our survey!
×
Author
Difficulty
novice
Hey, this is my first tab! ..yep, well, yeah :)

Intro/verse:
|---
|---
|-8x Just repeat this a bunch of time :P
|-9x
|-7x
|---

Solo/Breakdown:
|----------------------------------------------|
|---10-9-7-------7-----9h10-9-7-9--9h10-9-7-9--|
|----------9-6-9---9---------------------------|
|----------------------------------------------|
|----------------------------------------------|
|----------------------------------------------|

Palm mute part after Solo
|-----------------------|
|---9-9--8-8--6-6--8-8--|
|-----------------------|
|-----------------------|
|-----------------------|
|-----------------------|
    * *  * *  * *  * *

Now just repeat the Solo, then the Pre-Chorus

Pre-Chorus Guitar 1:
|--------------------------|
|--------------------------|
|-------999999-------------|
|777777-999999-999999999999 x4
|777777-777777-999999999999
|555555--------777777777777
 ** **  ** **  ** ** ** **
Pre Chorus Guitar 2: On first and third run-through

|--------------------------|
|--------------------------|
|--------------------------|
|------------------11-7-6--|
|------------------11-7-6--|
|------------------9--5-4--|

Pre-Chorus Guitar 2: On Second and fourth run-through.
Your on your own for the strumming pattern.

|--------------------------|
|--------------------------|
|------------------11-<-9--| x2
|------------------x--<-x--|
|------------------9--<-7--|
|--------------------------|

Then the Chorus

Chorus:
|----------------------------|
|----------------------------|
|-----99--9999------99-------| x2
|-77--99--9999--77--99--9999-|
|-77--77--9999--77--77--9999-|
|-55------7777--55------7777-|

Now repeat everything up to here and your on your own for that guitar outro :D
Suggest correction new What's this?
You can suggest a correction to this tab. Community and Mods will review your correction and vote to approve or reject it.
comments
We did not receive enough feedback on this tab! Please rate:
print report bad tab
1 2 3 4 5
guest
You may want to rate the tab now too:
select rating
Please do not post tabs as comments. Select "correction" instead!