Oops, an error
Loading. Please wait.

We Wish You A Merry Christmas Tab

version 1
version 1

Whole song

Interactive

28,465 views 6 this week
no commentswrite comment
1 2 3 4 5
accurate
x 8
add to favorites
launch autoscroll
font size
0
reset
how to read this tab
guitar tuner
Autoscroll
slow
fast
+/-
esc
set tempo
stop
Help us to improve Ultimate-Guitar.com Take our survey!
×
Author
----------------------------------------------------------------------------
                 WE WISH YOU A MERRY CHRISTMAS - Relient K
----------------------------------------------------------------------------
Tabbed by: me 
Email: skemo_the_fish@hotmail.com

Tuning: Standard

| /  slide up
| \  slide down
| h  hammer-on
| p  pull-off
| ~  vibrato
| +  harmonic
| x  Mute note
| *  Palm mute

Intro

  Guitar One (while Guitar Two plays B, G, D, A):
e|-----------------------------------------------------------------------|
B|-----------------------------------------------------------------------|
G|-------7---6---7--------7---6---7--------7---6---7--------7---6---7----|
D|--9--9---9---9-----5--5---5---5----------------------7--7---7---7------|
A|------------------------------------5--5---5---5-----------------------|
E|-----------------------------------------------------------------------|

e|-------------------------------------------------------------------|
B|-------------------------------------------------------------------|
G|-------7---6---7--------7---6---7--------7---6---7---6-66666666----|
D|--9--9---9---9-----5--5---5---5----------------------7-77777777----|
A|------------------------------------5--5---5---5-------------------|
E|-------------------------------------------------------------------|

  Verse
e|-------------------------------------------------------------------------|
B|-------------------------------------------------------------------------|
G|-------------------------------------------------------------------------|
D|-44444444----------77777777----------44444444----------77777777----------|
A|-22222222-55555555-55555555-77777777-22222222-55555555-55555555-77777777-|
E|----------33333333----------55555555----------33333333----------55555555-|
   ******** ******** ******** ********

  Prechorus
e|-------------------------------------------------------------------------|
B|-------------------------------------------------------------------------|
G|-------------------------------------------------------------------------|
D|-7-777777-------------------77777777-77777777-------------------77777777-|
A|-5-555555-77777777-55555555-55555555-55555555-77777777-55555577-55555555-|
E|----------55555555-33333333-------------------55555555-33333355----------|
     ****** ******** ******** ********
  
  Chorus
e|---------------------------------------------------------------|
B|---------------------------------------------------------------|
G|---------------------------------------------------------------|
D|-7!------222--------------7----777---------222--------------7--|
A|-5!--222-000-555-555-55-7-5----555-555-222-000-555-555-55-7-5--|
E|-----000-----222-333-33-5----------333-000-----222-333-33-5----|

  "intro" -with harmony-
e|-------------------------------------------------------------------|
B|-------7---5---7--------7---5---7--------7---5---7-----------------|
G|--7--7-7-7-6-7-7---7--7-7-7-6-7-7---7--7-7-7-6-7-7---6-66666666----|
D|--9--9---9---9-----5--5---5---5-----x--x---x---x-----7-77777777----|
A|------------------------------------5--5---5---5-------------------|
E|-------------------------------------------------------------------|

  Verse 2: just like verse one, except without the palm muting, and with
  Guitar One playing this over it:

e|------------------------------------------------------------------|
B|------------------------------------------------------------------|
G|-11-11111111111111111111111111--/14-14-141414141414-99999999--11~-|
D|-x--x-x-x-x-x-x-x-x-x-x-x-x-x--/-x--x--x-x-x-x-x-x--xxxxxxxx--x-~-|
A|-9--9-9-9-9-9-9-9-9-9-9-9-9-9-/--12-12-121212121212-77777777--9-~-|
E|------------------------------------------------------------------|

  [Prechorus]
  [Chorus]

  Outro
e|-----------------------|--------(Guitar Two)----------|
B|---------(bass)--------|------------------------------|
G|-----------------------|----4444-4444---2222-2222-2---|
D|-4444-4444---4444-4444-|-5--4444-4444-5-2222-2222-2---|
A|-2222-2222-5-2222-2222-|-5--2222-2222-5-0000-0000-0---|
E|-----------3-----------|-3------------3---------------|

  (Guitar One:)
e|-------------------------------------------------------------------------|
B|-------------------------------------------------------------------------|
G|-------11-x-9--x-11-x-9--x-9--9--/11--------11-x-9--x-11-x-9--x-11-x-9---|
D|-9-999-12-x-11-x-12-x-11-x-11-11/-12--9-999-12-x-11-x-12-x-11-x-12-x-11--|
A|-------------------------------------------------------------------------|
E|-------------------------------------------------------------------------|
   * ***                                * ***            
e|-----------------------------------------------------------------------|
B|-----------------------------------------------------------------------|
G|-------11-x-9--x-11-x-9--x-11-x-9---------11-x-9--x-11-x-9--x-11-x-9---|
D|-9-999-12-x-11-x-12-x-11-x-12-x-11--7-777-12-x-11-x-12-x-11-x-12-x-11--|
A|-----------------------------------------------------------------------|
E|-----------------------------------------------------------------------|
   * ***                              * ***

============================================================================
Suggest correction
comments
print report bad tab
guest
You may want to rate the tab now too:
select rating
Wanna post a correction for this tab? Suggest correction