Oops, an error
Loading. Please wait.

What Can I Do Updated Tab

308 views 1 this week
no commentswrite comment
1 2 3 4 5
3 more votes to show rating
add to favorites
launch autoscroll
font size
0
reset
how to read this tab
guitar tuner
Autoscroll
slow
fast
+/-
esc
set tempo
stop
Help us to improve Ultimate-Guitar.com Take our survey!
×
Author
About this tab version
Chords updated, 99,9% accurate :). Was this info helpful? Yes No
Updated, so i played this song a little more time and figure out some problems was in
old chords, so now i'm
sure it's 100% accurate.

Verse

e|--------------------------------------------------|
B|------------------3---3---3-3-3-3--1---1---1-1-1-1|
G|-7-x-7-x-7-7-7-7--0-x-0-x-0-0-0-0--0-x-0-x-0-0-0-0|
D|-5-x-5-x-5-5-5-5--4-x-4-x-4-4-4-4--2-x-2-x-2-2-2-2|
A|-7-x-7-x-7-7-7-7--5-x-5-x-5-5-5-5--0-x-0-x-0-0-0-0|
E|--------------------------------------------------|

e|--------------------------------------------------|
B|------------------3---3---3-3-3-3--1---1---1-1-1-1|
G|-0-x-0-x-0-0-0-0--0-x-0-x-0-0-0-0--0-x-0-x-0-0-0-0|
D|-0-x-0-x-0-0-0-0--4-x-4-x-4-4-4-4--2-x-2-x-2-2-2-2|
A|-2-x-2-x-2-2-2-2--5-x-5-x-5-5-5-5--3-x-3-x-3-3-3-3|
E|-3---3---3-3-3-3----------------------------------|

To the chorus

e|------|
B|---3-1|
G|-0-0-0|
D|-0-4-2|
A|-2-5-3|
E|-3----|

Chorus
e|-3-3-3-3-3-3----------------------------------------------------------|
B|-3-3-3-3-3-3--3-3-3-3-3-3----------------1-1-1-1-1-1-1-1--3-3-3-3-3-3-|
G|-0-0-0-0-0-0--0-0-0-0-0-0---7-7-7-7-7-7--0-0-0-0-2-2-2-2--0-0-0-0-0-0-|
D|-0-0-0-0-0-0--4-4-4-4-4-4---5-5-5-5-5-5--2-2-2-2-2-2-2-2--4-4-4-4-4-4-|
A|-2-2-2-2-2-2--2-2-2-2-2-2---7-7-7-7-7-7--3-3-3-3-3-3-3-3--5-5-5-5-5-5-|
E|-3-3-3-3-3-3----------------------------------------------------------|

e|----------------------------------------------------------------------|
B|------------3-3-3--1-1-1----------------------------------------------|
G|7-7-7-7-7-7-0-0-0--0-0-0----------------------------------------------|
D|5-5-5-5-5-5-4-4-4--2-2-2----------------------------------------------|
A|7-7-7-7-7-7-5-5-5--3-3-3----------------------------------------------|
E|----------------------------------------------------------------------|

Outro
e|-3-3-3-3-3-3--3-3-3-3-3-3--0-0-0-0-0-0-----------------------------------|
B|-3-3-3-3-3-3--3-3-3-3-3-3--3-3-3-3-3-3--1-1-1-3-3-3----------------------|
G|-0-0-0-0-0-0--0-0-0-0-0-0--2-2-2-2-2-2--0-0-0-0-0-0----------------------|
D|-0-0-0-0-0-0--2-2-2-2-2-2--2-2-2-2-2-2--2-2-2-4-4-4----------------------|
A|-2-2-2-2-2-2--2-2-2-2-2-2--0-0-0-0-0-0--3-3-3-5-5-5----------------------|
E|-3-3-3-3-3-3--0-0-0-0-0-0------------------------------------------------|
Suggest correction
Give kudos to tab author, rate the tab!
1 2 3 4 5
comments
print report bad tab
guest
You may want to rate the tab now too:
select rating
Wanna post a correction for this tab? Suggest correction