Oops, an error
Loading. Please wait.

What Have You Been Doing Lately Bass Tab

version 2
version 2

Whole song

515 views 1 this week
no commentswrite comment
1 2 3 4 5
please rate
add to favorites
launch autoscroll
font size
0
reset
guitar tuner
Autoscroll
slow
fast
+/-
esc
set tempo
stop
Help us to improve Ultimate-Guitar.com Take our survey!
×
Author
Relient K
What Have You Been Doing Lately
Notation Legend:
~  ->let ring
h  ->hammer on


G: -------------------]
D: ---7-6-4-----------]  x2
A: ---------7-5-4-----]
E: -5-------------7-5-]

G: ---------------------]
D: -----------5555------]
A: ------5555-----------]
E: -7777-----------0000-]

G: -------------------]
D: ---7-6-4-----------]  x2
A: ---------7-5-4-----]
E: -5-------------7-5-]

G: ---------------------]
D: -----------5555------]
A: ------5555-----------]
E: -7777-----------0000-]

G: --------------------]
D: -7777---------------]  x2
A: ------7777-55555555-]
E: --------------------]

G: --------------------]
D: --------------------]  x2
A: ------7777-55555555-]
E: -5555---------------]

G: ---------------------]
D: ---------------------]  x2
A: -5555-7777-9999-0000-]
E: ---------------------]

G: -------------------------------------------]
D: -------------------------------------------]
A: -5-5-5-5-7-7-7-7-9-9-9-9-0-0-0-0-5-5-5-5-7~]
E: -------------------------------------------]




G: -------------------]
D: ---7-6-4-----------]  x2
A: ---------7-5-4-----]
E: -5-------------7-5-]

G: ---------------------]
D: -----------5555------]
A: ------5555-----------]
E: -7777-----------0000-]

G: -------------------]
D: ---7-6-4-----------]  x2
A: ---------7-5-4-----]
E: -5-------------7-5-]

G: ---------------------]
D: -----------5555------]
A: ------5555-----------]
E: -7777-----------0000-]

G: --------------------]
D: -7777---------------]  x2
A: ------7777-55555555-]
E: --------------------]

G: --------------------]
D: --------------------]  x2
A: ------7777-55555555-]
E: -5555---------------]

G: ---------------------]
D: ---------------------]  x2
A: -5555-7777-9999-0000-]
E: ---------------------]

G: -------------------------------------------]
D: -------------------------------------------]
A: -5-5-5-5-7-7-7-7-9-9-9-9-0-0-0-0-5-5-5-5-7~]
E: -------------------------------------------]




G: ------------------------------------------------
D: ------------------------------------------------
A: ----------55-5-5--------------------------------
E: -55-55-55--------44-44-55-55-5h4-22-22-22-22-00-

   ----------------]
   ----------------]  x3
   ----------------]
   -22-22-22-22-00-]

G: -----------------------------]
D: -----------------------------]
A: ---------------------------5~]
E: -22-22-22------22-22-22-22---]

G: -------------------]
D: ---7-6-4-----------]  x2
A: ---------7-5-4-----]
E: -5-------------7-5-]

G: ---------------------]
D: -----------5555------]
A: ------5555-----------]
E: -7777-----------0000-]

G: -------------------]
D: ---7-6-4-----------]  x2
A: ---------7-5-4-----]
E: -5-------------7-5-]

G: ---------------------]
D: -----------5555------]
A: ------5555-----------]
E: -7777-----------0000-]

G: ------------------------------------------------
D: ------------------------------------------------
A: ----------55-5-5--------------------------------
E: -55-55-55--------44-44-55-55-5h4-22-22-22-22-00-

   ----------------]
   ----------------]  x3
   ----------------]
   -22-22-22-22-00-]



G: -----------------------------]
D: -----------------------------]
A: ---------------------------5~]
E: -22-22-22------22-22-22-22---]
Suggest correction
Give kudos to tab author, rate the tab!
1 2 3 4 5
comments
print report bad tab
guest
You may want to rate the tab now too:
select rating
Wanna post a correction for this tab? Suggest correction