Oops, an error
Loading. Please wait.

When I Go Down Tab

version 4
version 4

Whole song

Interactive

2,274 views 3 this week
no commentswrite comment
1 2 3 4 5
x 4
add to favorites
launch autoscroll
font size
0
reset
how to read this tab
guitar tuner
Autoscroll
slow
fast
+/-
esc
set tempo
stop
Help us to improve Ultimate-Guitar.com Take our survey!
×
Author
Title: When I Go Down
Artist: Relient K
Album: Mmhmm
Tuning: EADGBd

Chords:
 D5/A     Bm7     G5     Asus4   Aadd11    E     Gtype2   D/F#     D      Bm     Dsus2
d|--0--| |--0--| |--0--| |--0--| |--0--| |--x--| |--x--| |--x--| |--x--| |--x--| |--2--|
B|--3--| |--3--| |--3--| |--3--| |--2--| |--0--| |--x--| |--x--| |--x--| |--x--| |--3--|
G|--2--| |--2--| |--0--| |--2--| |--2--| |--1--| |--4--| |--2--| |--11-| |--7--| |--2--|
D|--0--| |--0--| |--0--| |--2--| |--2--| |--2--| |--0--| |--0--| |--0--| |--0--| |--0--|
A|--0--| |--2--| |--x--| |--0--| |--0--| |--2--| |--x--| |--x--| |--x--| |--x--| |--0--|
E|--x--| |--x--| |--3--| |--x--| |--x--| |--0--| |--3--| |--2--| |--10-| |--x--| |--x--|

Intro:
|----------------------------------------------------------------------|
|----------------------------------------------------------------------|
|-----4-----4-----4-----4-----4------------4-----4-----4-----4-----4---|
|---2-----2-----2-----2-----2---2--------2-----2-----2-----2-----2---2-|
|-4-----4-----4-----4-----4-----------0------0-----0-----0-----0-------|
|----------------------------------------------------------------------|

|--------------------------------------------------------------------|
|--------------------------------------------------------------------|
|-----4-----4-----4-----4-----4----------4-----4-----4-----4-----4---|
|---2-----2-----2-----2-----2---2------2-----2-----2-----2-----2---2-|
|-4-----4-----4-----4-----4------------------------------------------|
|------------------------------------0-----0-----0-----0-----0-------|


Verse 1:
|----------------------------------------------------------------------|
|----------------------------------------------------------------------|
|-----4-----4-----4-----4-----4------------4-----4-----4-----4-----4---|(4x)
|---2-----2-----2-----2-----2---2--------2-----2-----2-----2-----2---2-|
|-4-----4-----4-----4-----4-----------0------0-----0-----0-----0-------|
|----------------------------------------------------------------------|


Pre-Chorus:
|------------------------------------|
|------------------------------------|
|-------2-----2----------4-----4-----| (4x)
|-----0-----0-----0----0-----0-----0-|
|------------------------------------|
|---2-----2-----2----3-----3-----3---|

|------------------------------------------------|
|------------------------------------------------|
|-------1~---------------------------------------|
|-------2~--------2-2-2-2-2--5-5-5-5-5-5-5-5--7~-|
|-------2~--------2-2-2-2-2--5-5-5-5-5-5-5-5--7~-|
|---0-0-0~--------0-0-0-0-0--3-3-3-3-3-3-3-3--5~-|


Chorus:
D5/A  Bm7  G5  Asus4  Aadd11
D5/A  Bm7  G5  Asus4  Aadd11


Interlude:
|----------------------------------------------------------------------|
|----------------------------------------------------------------------|
|-----4-----4-----4-----4-----4------------4-----4-----4-----4-----4---|
|---2-----2-----2-----2-----2---2--------2-----2-----2-----2-----2---2-|
|-4-----4-----4-----4-----4-----------0------0-----0-----0-----0-------|
|----------------------------------------------------------------------|

|-------------------------------------|
|-------------------------------------|
|-----4-----4-----4-----4-----4-------|
|---2-----2-----2-----2-----2---2--2~-|
|-4-----4-----4-----4-----4--------2~-|
|----------------------------------0~-|


Verse 2:
|----------------------------------------------------------------------|
|----------------------------------------------------------------------|
|-4-4-4-4-4---4---4-4-4---4-4-4--4-4-4-4-4---4---4-4-4---4-4-4---------| (4x)
|-2-2-2-2-2---2---2-2-2---2-2-2--2-2-2-2-2---2---2-2-2---2-2-2---------|
|-4-4-4-4-4---4---4-4-4---4-4-4--0-0-0-0-0---0---0-0-0---0-0-0---------|
|----------------------------------------------------------------------|


Pre-Chorus 2:
|-------------------------------------|
|-------------------------------------|
|-------2-----2----------4-----4------| (8x)
|-----0-----0-----0----0-----0-----0--|
|-------------------------------------|
|---2-----2-----2----3-----3-----3----|

|-----------------------------------|
|---0~------------------------------|
|---1~------------------------------|
|---2~--------5-5-5-5-5-5-5-5--7~---|
|---2~--------5-5-5-5-5-5-5-5--7~---|
|---0~--------3-3-3-3-3-3-3-3--5~---|


Chorus 2:
D5/A  Bm7  G5  Asus4  Aadd11
D5/A  Bm7  G5  Asus4  Aadd11


Bridge:
(this part is really tricky. Just listen to the song and you'll get it)

         Any control   I   thought I had          just slips right through
|------0-----0-0-0--------0--------0-0-0-------0-0-0----------0-----------|
|------3-----3-3-3--------3--------3-3-3-------3-3-3----------3-----------|
|------2-----2-2-2--------2--------2-2-2-------0-0-0----------0-----------|
|------0-----0-0-0--------2--------2-2-2---0---0-0-0----------0-----------|
|-2----------2-2-2---0-------------0-0-0---x---x-x-x----------x-----------|
|------------------------------------------3---3-3-3-----3----3-----2-----|

 my hands while my ev - er - pre - sent   con - science shakes its head and
|------------0--0--0----0--0--0------0--0--0-------0----0---0--0-------0---|
|------------3--3--2----2--2--2------2--2--2-------3----3---3--3-------3---|
|-2----------2--2--2----2--2--2------2--2--2-------0----0---0--0-------0---|
|-0---2------2--2--2----2--2--2------2--2--2---0---0----0---0--0-------0---|
|-x---0------0--0--0----0--0--0------0--0--0---x---x----x---x--x-------x---|
|-2--------------------------------------------3---3----3---3--3---3---3---|

  re-pri-mands   me. Re - pri - mands me.                     
|--------------0----------------------0--0--0--0--0---0--0--0------------|
|--------------3----------------------3--3--3--3--2---2--2--2------------|
|-------2------2----------------------2--2--2--2--2---2--2--2------------|
|-------0------2----------------------2--2--2--2--2---2--2--2------------|
|-------x---2--0-------------------0--0--0--0--0--0---0--0--0------------|
|-2-----2---0------------------------------------------------------------|

Aadd11    Dsus2        G5     Dsus2                               G5
Then and there I confess, and I'll blame all this on my selfishness

       Dsus2                    G5 
Yet You love me and that consumes me

    Dsus2                              G5
And I'll stand up again and do so will-ing-ly


Interlude 2:
Gtr 2:
|-----------------------------------------------------|
|----------7-----------------------7------------------|
|-----5---------7-------------5---------7-------------|(2x)
|--------------------7-------------------------12-----|
|-----------------------------------------------------|
|-----------------------------------------------------|
Harm.|************************************************|

|-------------------------------------------|
|----------7---------------------7----------|
|----12---------7----------12---------7-----|(4x)
|--------------------7----------------------|
|-------------------------------------------|
|-------------------------------------------|
Harm.|**************************************|

Bridge 2:
Gtr 1:
Gtype2  D/F#  Gtype2  D
Gtype2  Bm  Gtype2  D

              Gtype2  D/F#    Gtype2           D
You give me hope           and hope it gives me life

      Gtype2           Bm                Gtype2            D
You touch my heavy heart     and when You do You make it light

Gtype2  D/F#   Gtype2         D
As I exhale,        I hear Your voice

   Gtype2       Bm          Gtype2         D
And I answer You,  though I hardly make a noise

          Gtype2     D/F#       Gtype2            D              Gtype2
And from my       lips      the words I choose to say seem pathetic

           Gtype2       D
But it's a fallen man's praise

            G   D/F#       Gtype2     D
Cause I love     You

           Gtype2    Bm          Gtype2       D
Oh, God, I love      You


Gtype2  D/F#  Gtype2  D
Gtype2  Bm  Gtype2  D

     Gtype2         D/F#      Gtype2           D
And life is now worth living if only because of You

              Gtype2         Bm
And when they say that I am dead and gone

            Gtype2          D
It won't be further from the truth

Interlude 3:
|------------------------------------|
|------------------------------------|
|---7-7-7-7--------------------------|(2x)
|---7-7-7-7--5-5/7-7-7-7-/9\4-4/5~---|
|---5-5-5-5--5-5/7-7-7-7-/9\4-4/5~---|
|------------3-3/5-5-5-5-/7\2-2/3~---|

Outro:

D5/A  Bm7  G5  Aadd11


|----------------------------------------------------------------------|
|----------------------------------------------------------------------|
|-----4-----4-----4-----4-----4------------4-----4-----4-----4-----4---| (2x)
|---2-----2-----2-----2-----2---2--------2-----2-----2-----2-----2---2-|
|-4-----4-----4-----4-----4-----------0------0-----0-----0-----0-------|
|----------------------------------------------------------------------|

|-----------------------|
|-----------------------|
|-------2-----2------4~-|
|-----0-----0-----0--0~-|
|--------------------0~-|
|---2-----2-----2----3~-|
Suggest correction
comments
print report bad tab
guest
You may want to rate the tab now too:
select rating
Wanna post a correction for this tab? Suggest correction