Oops, an error
Loading. Please wait.

Which To Bury Us Or The Hatchet Tab

version 1
version 1

Solo

Whole song

Interactive

1,669 views 1 this week
4 commentsread comments
1 2 3 4 5
please rate
add to favorites
launch autoscroll
font size
0
reset
how to read this tab
guitar tuner
Autoscroll
slow
fast
+/-
esc
set tempo
stop
Help us to improve Ultimate-Guitar.com Take our survey!
×
Author
Difficulty
novice
Eb[-------------------------------------------------------------------]
Bb[----1-----1-----1------1-----1----1------1------1------1------1----]
Gb[------2-----2-----2------2----------2------2-------2------2--------]
Db[--2-----2-----2------2-----2----3------3------3------3------3------]
Ab[-------------------------------------------------------------------]
Eb[-------------------------------------------------------------------]

Eb[-------------------------------------------------------------------]
Bb[-----1------1------1-----1-------1-----3-----3------3-----3------3-]
Gb[--------2------2------2-----2------------4-----4------4-----4------]
Db[---0------0------0------0-----0------5-----5------5-----6-----6----]
Ab[-------------------------------------------------------------------]
Eb[-------------------------------------------------------------------]

 THis is the solo after the chorus. It sounds like a banjo.
Suggest correction
Give kudos to tab author, rate the tab!
1 2 3 4 5
comments
print report bad tab
4 comments total. Showing first comments.
0 reply
Claymation99 65 wrote on June 22 2006, 04:19 pm

that's cuz it is a banjo. it's not a solo. it's a riff.

0 reply
nolifemusician 30 wrote on June 22 2006, 10:18 pm

is it even in a frikin pattern? i dont think so
w.e i hate this band

0 reply
black_roses_jmt 10 wrote on May 20 2007, 01:15 am

this isn't a solo... you wanna know why it sounds like a banjo? cuz it is a banjo... try using common sense every know and then, it helps

guest
You may want to rate the tab now too:
select rating
Wanna post a correction for this tab? Suggest correction