Oops, an error
Loading. Please wait.

Who I Am Hates Who Ive Been Bass Tab

version 1
version 1

Whole song

Interactive

6,323 views 1 this week
3 commentsread comments
1 2 3 4 5
accurate
x 6
add to favorites
launch autoscroll
font size
0
reset
guitar tuner
Tab Pro tools
  • play this tab
  • loop segment
  • change instrument
  • show fretboard
  • metronome
×
Best way to learn
"Who I Am Hates Who Ive Been"
Autoscroll
slow
fast
+/-
esc
set tempo
stop
Contributor
Who I am hates Who I’ve been - Relient-K

Tabbed By: Drew Fish
e-mail: Microfish89@yahoo.com

Tuning: Standard

Intro
G|------------------------|
D|------------------------|
A|-------1111-3333-6666---|
E|--4444------------------| Repeat x2

G|----------|
D|----------|
A|------1---|
E|--4-4-----|

Verse 1
...’cause I don’t...
G|----------|		      G|-------------------|
D|----------|		      D|-------------------|
A|----1-3---|		      A|-----------11111---|
E|--4-------| Repeat x2       E|--44444444---------|

Pre-Chorus
Stop right there...
G|---------------------------------------|
D|---------------------------------------|
A|--6---1-5-----3-11--6---1-5-----1111---|
E|----------3-4---------------3-4--------|

Chorus
I’m sorry for...
G|----------------------------------------------------------------------------|
D|----------------------------------------------------------------------------|
A|--66666666666666--111-33333333333333-1-66666666666666-111-33333333------1111|
E|-------------------------------------------------------------------4444-----|

(INTRO)
Verse 2
I talk to...
G|----------------------------------------|
D|----------------------------------------|
A|--66666666----------33333333-11111111---|
E|-----------44444444---------------------|

G|----------------------------------------|
D|----------566666666---------------------|
A|--6666669-----------33336688-11111111---|
E|----------------------------------------|

G|------------35----------------------------------------|
D|------------------------------------------------------|
A|----1-333333--3--1-3----------11111(fade)---6(fade)---|
E|--4------------4-----44444444-------------------------|
(PRE-CHORUS)
(CHORUS)
Bridge
...chance you gave me...		Outro
G|--------------|				G|----------------------------|
D|--------------|				D|----------------------------|
A|--2-3---6-1---|go to chorus		        A|--3-6---1-3-6-----1(fade)---|
E|------4-------|				E|------4-------4-4-----------|


These tabs work for a 4 string bass with standard tuning. If you are using a 5
string bass just use the "D" on the 5th string and go from there.

Order:

Intro
Verse 1
Pre-Chorus
Chorus
Intro
Verse 2
Pre-Chorus
Chorus
Bridge
Chorus
Outro

On the Bridge, the bass comes in at 3:01 or when he says “gave”


comments
print report bad tab
3 comments total.
+1 reply
StJimmy037 wrote on December 28 2005, 10:38 pm

are you sure the intro is correct?

+1 reply
bassbomb1193 wrote on September 7 2007, 06:04 pm

dude looks like you put the tab together in 5 seconds

0 reply
Switchchick0610 wrote on August 12 2009, 02:30 pm

This tab sucks. missing and some wrong notes. Dood just listen

I want to post or [tab]
guest
You may want to rate the tab now too:
select rating
Please do not post tabs as comments. Select "correction" instead!