Oops, an error
Loading. Please wait.

Who I Am Hates Who Ive Been Tab

version 1
version 1

Intro

Whole song

Interactive

12,368 views 3 this week
8 commentsread comments
1 2 3 4 5
x 11
add to favorites
launch autoscroll
font size
0
reset
how to read this tab
guitar tuner
Autoscroll
slow
fast
+/-
esc
set tempo
stop
Help us to improve Ultimate-Guitar.com Take our survey!
×
Author
Band: Relient K 
Song: Who I Am Hates Who I've Been
Transcribed by: Tim Carter

Standard Tuning:

E |---------------|---------------|---------------|---------------|:
B |4---8---6---4--|3---4---6---3--|3---4---3---4--|6---8---3---4--|:
G |--3---3---3---3|--3---3---3---3|--3---3---3---3|--3---3---3---3|:
D |---------------|---------------|---------------|---------------|:
A |---------------|---------------|---------------|---------------|:
E |---------------|---------------|---------------|---------------|: repeat

E |-----|
B |4-4-3|
G |-----|
D |-----|
A |-----|
E |-----|

--------------------------------------------------------------------

or tune everything a half step down(B to Bb):

Eb|---------------|---------------|---------------|---------------|:
Bb|5-0-9-0-7-0-5-0|4-0-5-0-7-0-4-0|4-0-5-0-4-0-5-0|7-0-9-0-4-0-5-0|:
F#|---------------|---------------|---------------|---------------|:
Db|---------------|---------------|---------------|---------------|:
G#|---------------|---------------|---------------|---------------|:
Eb|---------------|---------------|---------------|---------------|: repeat

Eb|-----|
Bb|5-5-4|
F#|-----|
Db|-----|
G#|-----|
Eb|-----|
Suggest correction
comments
print report bad tab
8 comments total. Showing first comments.
0 reply
zj674 10 Dec 14, 2005 06:58 PM

In The First Tab Of The Intro Do You Capo 3rd Fret Or Not Because Looking at That Im Pretty Sure You Do. But Anyways nice tabs

0 reply
dpunkplayer182 20 Dec 31, 2005 01:59 PM

sweet tab, cant wait for the rest

0 reply
cpt. insano 10 Jan 29, 2006 12:09 AM

i listened to the song and it doesnt sound like that its more like this

e----------------|----------------|----------------|----------------
b-5-0-9-0-7-0-5-0|-4-0-5-0-7-0-4-0|-4-0-5-0-4-0-5-0|-7-0-9-0-4-0-5-0
g----------------|----------------|----------------|----------------

play that again but add
e---------
b--5--5--4 let it ring
g---------

alright cool try it out

guest
You may want to rate the tab now too:
select rating
Wanna post a correction for this tab? Suggest correction