Oops, an error
Loading. Please wait.

Who I Am Hates Who Ive Been Tab

version 1
version 1

Intro

Whole song

Interactive

69,685 views 75 this week
11 commentsread comments
1 2 3 4 5
excellent!
x 21
add to favorites
launch autoscroll
font size
0
reset
how to read this tab
guitar tuner
Tab Pro tools
  • play this tab
  • loop segment
  • change instrument
  • show fretboard
  • metronome
×
Best way to learn
"Who I Am Hates Who Ive Been"
Autoscroll
slow
fast
+/-
esc
set tempo
stop
Contributor
Difficulty
intermediate
Song: Who I Am Hates Who I've Been
Artist: Relient K
Album: MMHMM
Tabber: aceguitarock
Tuning: Half step down (Eb, Ab, Db, Gb, Bb, Eb)

Key:
* = Palm Mute
x = Dead Note
/ = Slide

I split some parts of the song into two or three guitars.
Also, I posted the time to make it easier to follow along.

Rate and Comment Please

Intro: (0:00)
Gtr. 1:
|-----------------------------------------------------------------|
|-5-0-9-0-7-0-5-0-4-0-5-0-7-0-4-0-4-0-5-0-4-0-5-0-7-0-9-0-4-0-5-0-|
|-----------------------------------------------------------------|
|-----------------------------------------------------------------| x2
|-----------------------------------------------------------------|
|-----------------------------------------------------------------|

Gtr. 2:
|-------------------------------------|
|-------------------------------------|
|-22222222-44444444-66666666----------|
|-22222222-44444444-66666666-22222222-| x2
|-00000000-22222222-44444444-22222222-|
|----------------------------00000000-|

(0:11)
Gtr. 1:
|-0-0-0--------|
|-5-5-4--------|
|--------------|
|--------------|
|--------------|
|--------------|

Gtr. 2:
|--------------|
|--------------|
|-2-2-4--------|
|-2-2-4--------|
|-0-0-2--------|
|--------------|

Verse 1: (0:26)
(Clean)
|-0--------0--------0----------------|
|-0--------0--------0----------------|
|-2--------4--------6----------------|
|-2--------4--------6----------------| x2
|-0--------2--------4----------------|
|------------------------------------|

(Dist.) (0:37)
|----------------------------------|
|----------------------------------|
|---------------------------4------|
|-2222222222222222-44444444-4------|
|-0000000000000000-22222222-2------|
|----------------------------------|
PM**************** ********       

Pre-Chorus: (0:43)
|------------------------------------------------------------------------|
|------------------------------------------------------------------------|
|-----9-9------888-8-----------------------------9-9------888-8----------|
|-2-2/9-9-x9-9-999-9-6-x-77-x11-111111-9-9---2-2/9-9-x9-9-999-9----------|
|-2-2/7-7-x9-9-666-6-7-x-77-x11-111111-9-9---2-2/7-7-x9-9-666-6----7----7|
|-0-0-----x7-7-------4-x-55-x-9--9-9-9-7-7---0-0-----x7-7-------44---55--|
PM                                                              **   **

(0:53)
|----------|
|----------|
|----------|
|-99999999-|
|-99999999-|
|-77777777-|
PM********

Chorus 1: (0:55)
|-0000000000000000000000000000-------0000000000000000000000000000-------|
|-0000000000000000000000000000-------0000000000000000000000000000-------|
|-xxxxxxxxxxxxxxxxxxxxxxxxxxxx-444-6-6666666666666666666666666666-444---|
|-2222222222222222222222222222-xxx-x-6666666666666666666666666666-xxx-2-|
|-2222222222222222222222222222-222-4-4444444444444444444444444444-222-2-|
|-0000000000000000000000000000----------------------------------------0-|

|-0000000000000000000000000000-------0000000000000000-------------------|
|-0000000000000000000000000000-------0000000000000000-------------------|
|-xxxxxxxxxxxxxxxxxxxxxxxxxxxx-444-6-6666666666666666-22222222-44444444-|
|-2222222222222222222222222222-xxx-x-6666666666666666-22222222-44444444-|
|-2222222222222222222222222222-222-4-4444444444444444-00000000-22222222-|
|-0000000000000000000000000000------------------------------------------|

Interlude: (1:17)
Gtr. 1:
|-----------------------------------------------------------------|
|-5-0-9-0-7-0-5-0-4-0-5-0-7-0-4-0-4-0-5-0-4-0-5-0-7-0-9-0-4-0-5-0-|
|-----------------------------------------------------------------|
|-----------------------------------------------------------------| x2
|-----------------------------------------------------------------|
|-----------------------------------------------------------------|

Gtr. 2:
|-------------------------------------|
|-------------------------------------|
|-22222222-44444444-66666666----------|
|-22222222-44444444-66666666-22222222-| x2
|-00000000-22222222-44444444-22222222-|
|----------------------------00000000-|

Gtr. 3: (On Gtr. 1's second time)
|--------------------------------------------------------------------|
|-9-0-12-0-10-0-9-0-7-0-9-0-10-0-7-0-7-0-9-0-7-0-9-0-10-0-12-0-7-0-9-|
|--------------------------------------------------------------------|
|--------------------------------------------------------------------|
|--------------------------------------------------------------------|
|--------------------------------------------------------------------|

Verse 2: (1:29)
|-----------------------------------------------------------------------|
|-----------------------------------------------------------------------|
|-----------------------------------------------------------------------|
|-2------------------2222222222222222-6666666666666666-4444444444444444-| x2
|-2-2222222222222222-0000000000000000-4444444444444444-2222222222222222-|
|-0-0000000000000000----------------------------------------------------|
PM  **************** **************** **************** ****************

(1:52)
|---------------------------------|
|---------------------------------|
|-2-2-222-4-4-444-8-8-888-8-8-888-|
|-2-2-222-4-4-444-6-6-666-6-6-666-| x2
|-0-0-000-2-2-222-4-4-444-4-4-444-|
|---------------------------------|

(2:03)
|----------------------------------|
|----------------------------------|
|---------------------------4------|
|-2222222222222222-44444444-4------|
|-0000000000000000-22222222-2------|
|----------------------------------|
PM**************** ********

Pre-Chorus 2: (2:09)
|-0-----------------|
|-0-----------------|
|-x-----------------|
|-2-----------------|
|-2-----------------|
|-0-----------------|     

(2:22)
|------------------------------------------------------------------------|
|------------------------------------------------------------------------|
|-----9-9------888-8-----------------------------9-9------888-8----------|
|-2-2/9-9-x9-9-999-9-6-x-77-x11-111111-9-9---2-2/9-9-x9-9-999-9----------|
|-2-2/7-7-x9-9-666-6-7-x-77-x11-111111-9-9---2-2/7-7-x9-9-666-6----7----7|
|-0-0-----x7-7-------4-x-55-x-9--9-9-9-7-7---0-0-----x7-7-------44---55--|
PM                                                              **   **

(2:32)
|----------|
|----------|
|----------|
|-99999999-|
|-99999999-|
|-77777777-|
PM********

Chorus 2: (2:34)
|-0000000000000000000000000000-------0000000000000000000000000000-------|
|-0000000000000000000000000000-------0000000000000000000000000000-------|
|-xxxxxxxxxxxxxxxxxxxxxxxxxxxx-444-6-6666666666666666666666666666-444---|
|-2222222222222222222222222222-xxx-x-6666666666666666666666666666-xxx-2-|
|-2222222222222222222222222222-222-4-4444444444444444444444444444-222-2-|
|-0000000000000000000000000000----------------------------------------0-|

|-0000000000000000000000000000-------0000000000000000-------------------|
|-0000000000000000000000000000-------0000000000000000-------------------|
|-xxxxxxxxxxxxxxxxxxxxxxxxxxxx-444-6-6666666666666666-22222222-44444444-|
|-2222222222222222222222222222-xxx-x-6666666666666666-22222222-44444444-|
|-2222222222222222222222222222-222-4-4444444444444444-00000000-22222222-|
|-0000000000000000000000000000------------------------------------------|

Bridge: (2:57)
|-------------------------------------------------------------------|
|-------------------------------------------------------------------|
|----------------------------------6-6-666-2-2-222---------44444444-|
|----------------------------22222-6-6-666-2-2-222-2-2-222-44444444-|
|-77777777-77777777-22222222-33333-4-4-444-0-0-000-2-2-222-22222222-|
|-44444444-55555555-00000000-----------------------0-0-000----------|
PM******** ******** ******** ****

Chorus 3: (3:08)
|-0000000000000000000000000000-------0000000000000000000000000000-------|
|-0000000000000000000000000000-------0000000000000000000000000000-------|
|-xxxxxxxxxxxxxxxxxxxxxxxxxxxx-444-6-6666666666666666666666666666-444---|
|-2222222222222222222222222222-xxx-x-6666666666666666666666666666-xxx-2-|
|-2222222222222222222222222222-222-4-4444444444444444444444444444-222-2-|
|-0000000000000000000000000000----------------------------------------0-|

|-0000000000000000000000000000-------0000000000000000-------------------|
|-0000000000000000000000000000-------0000000000000000-------------------|
|-xxxxxxxxxxxxxxxxxxxxxxxxxxxx-444-6-6666666666666666-22222222-44444444-|
|-2222222222222222222222222222-xxx-x-6666666666666666-22222222-44444444-|
|-2222222222222222222222222222-222-4-4444444444444444-00000000-22222222-|
|-0000000000000000000000000000------------------------------------------|

Outro: (3:31)

Gtr. 1:
|-----------------------------------------------------------------|
|-5-0-9-0-7-0-5-0-4-0-5-0-7-0-4-0-4-0-5-0-4-0-5-0-7-0-9-0-4-0-5-0-|
|-----------------------------------------------------------------|
|-----------------------------------------------------------------| x2
|-----------------------------------------------------------------|
|-----------------------------------------------------------------|
PM* * * * * * * * * * * * * * *

Gtr. 2:
|------------------------------------------------------------------|
|------------------------------------------------------------------|
|------------66666666----------22222222-44444444-66666666----------|
|------------66666666-22222222-22222222-44444444-66666666-22222222-|
|-22------22-44444444-22222222-00000000-22222222-44444444-22222222-|
|-00------00----------00000000----------------------------00000000-|
PM**      **

Gtr. 3: (Along with Gtr. 1)
|--------------------------------------------------------------------|
|-9-0-12-0-10-0-9-0-7-0-9-0-10-0-7-0-7-0-9-0-7-0-9-0-10-0-12-0-7-0-9-|
|--------------------------------------------------------------------|
|--------------------------------------------------------------------| x2
|--------------------------------------------------------------------|
|--------------------------------------------------------------------|
PM* * *  * *  * * * * * * * *  * * *

Gtr. 1:
|-0-0-0--------|
|-5-5-4--------|
|--------------|
|--------------|
|--------------|
|--------------|

Gtr. 2:
|--------------|
|--------------|
|-2-2-4--------|
|-2-2-4--------|
|-0-0-2--------|
|--------------|

Gtr. 3:
|--------------|
|-9-9-7--------|
|--------------|
|--------------|
|--------------|
|--------------|

Lyrics:
I watched the proverbial sunrise
Coming up over the Pacific and
You might think I'm losing my mind,
But I will shy away from the specifics...

'cause I don't want you to know where I am
'cause then you'll see my heart
In the saddest state it's ever been.

This is no place to try and live my life.

[Pre-Chorus]
Stop right there. That's exactly where I lost it.
See that line. Well I never should have crossed it.
Stop right there. Well I never should have said
That it's the very moment that
I wish that I could take back.

[Chorus]
I'm sorry for the person I became.
I'm sorry that it took so long for me to change.
I'm ready to be sure I never become that way again
'cause who I am hates who I've been.
Who I am hates who I've been.

I talk to absolutely no one.
Couldn't keep to myself enough.
And the things bottled inside have finally begun
To create so much pressure that I'll soon blow up.

I heard the reverberating footsteps
Synching up to the beating of my heart,
And I was positive that unless I got myself together,
I would watch me fall apart.

And I can't let that happen again
'cause then you'll see my heart
In the saddest state it's ever been.

This is no place to try and live my life.

[Pre-Chorus x2]
[Chorus]

Who I am hates who I've been
And who I am will take the second chance you gave me.
Who I am hates who I've been
'cause who I've been only ever made me...

So sorry for the person I became.
So sorry that it took so long for me to change.
I'm ready to be sure I never become that way again
'cause who I am hates who I've been.
Who I am hates who I've been.
comments
print report bad tab
11 comments total. Showing first comments.
0 reply
JesusFreak37 wrote on August 10 2007, 07:03 pm

Sorry dude put the tab is mest up

0 reply
JesusFreak37 wrote on August 10 2007, 07:10 pm

Sorry about the last one, this is right but the rythme is mest up

+1 reply
aceguitarock wrote on August 18 2007, 06:20 pm

well thats okay, it's just the basic rhythm scheme, you don't have to play it exactly as i put it.

I want to post or [tab]
guest
You may want to rate the tab now too:
select rating
Please do not post tabs as comments. Select "correction" instead!