Oops, an error
Loading. Please wait.

Who I Am Hates Who Ive Been Bass Tab

version 2
version 2

Whole song

Interactive

2,410 views 3 this week
no commentswrite comment
1 2 3 4 5
x 3
add to favorites
launch autoscroll
font size
0
reset
guitar tuner
Autoscroll
slow
fast
+/-
esc
set tempo
stop
Help us to improve Ultimate-Guitar.com Take our survey!
×
Author
Difficulty
novice
Intro
G|----------------------------------|
D|-------------------------11111111-|
A|---------1111111133333333---------| x2
E|-44444444-------------------------|

G|------------------|
D|-1-1--------------|
A|-----1~-----------|
E|------------------|

Rest

Verse
G|----------------------------------|
D|----------------------------------|
A|---------1~------3~---------------| x2
E|-4~-------------------------------|

G|----------------------------------|
D|----------------------------------|
A|-----------------111111111--------|
E|-4444444444444444-----------------|

Pre-Chorus
G|----------------------------------|
D|-11111111----0000-----------------|
A|---------1111------------3333-1-1-|
E|-----------------33334444---------|
G|----------------------------------|
D|-11111111----0000-----------------|
A|---------1111------------11111111-|
E|-----------------44444444---------|

Chorus
G|------------------------------------------------------------------|
D|-1111111111111111111111111111-------------------------------------|
A|------------------------------1113333333333333333333333333333-111-|
E|------------------------------------------------------------------|

G|------------------------------------------------------------------|
D|-1111111111111111111111111111-------------------------------------|
A|------------------------------1113333333333333333--------11111111-|
E|-------------------------------------------------44444444---------|

Post-Chorus x2
G|----------------------------------|
D|-------------------------11111111-|
A|---------1111111133333333---------| 
E|-44444444-------------------------|

Verse 2
G|------------------------------------------------------------------|
D|-1111111111111111-------------------------------------------------|
A|---------------------------------33333333333333331111111111111111-|
E|-----------------4444444444444444---------------------------------|

G|------------------------------------------------------------------|
D|-111111111111----------------------------11113333-----------------|
A|---------------------------------33333333--------1111111111111111-|
E|-------------11334444444444444444---------------------------------|

G|------------------------------------------------------------------|
D|-----------------------------3h53---------------------------------|
A|---------11111111333333333333----6-------111111113333333333333333-| 
E|-44444444-------------------------4444444-------------------------|

G|----------------------------------|
D|----------------------------------|
A|-----------------111111111--------|
E|-4444444444444444-----------------|

Pre-Chorus 2
G|----------------------------------|
D|-1~~~~~~~~~~~~~~~-----------------|
A|----------------------------------|
E|----------------------------------|

G|----------------------------------|
D|-11111111----0000-----------------|
A|---------1111------------3333-1-1-|
E|-----------------33334444---------|

G|----------------------------------|
D|-11111111----0000-----------------|
A|---------1111------------11111111-|
E|-----------------44444444---------|

Chorus

Bridge 
G|------------------------------------------------------------------|
D|-------------------------------------------------11111111---------|
A|-----------------------------3~--33333333----------------11111111-|
E|-----------------------------------------44444444-----------------|

Chorus

Outro
G|------------------------------------------------------------------|
D|-------------------------11111111------------------------11111111-|
A|-----------------33333333----------------1111111133333333---------|
E|---------------------------------44444444-------------------------|

G|------------------|
D|-1-1--------------|
A|-----1~-----------|
E|------------------|
Suggest correction
Give kudos to tab author, rate the tab!
1 2 3 4 5
comments
print report bad tab
guest
You may want to rate the tab now too:
select rating
Wanna post a correction for this tab? Suggest correction