Oops, an error
Loading. Please wait.

Who I Am Hates Who Ive Been Tab

version 2
version 2

Whole song

Interactive

4,713 views 1 this week
1 commentread comment
1 2 3 4 5
please rate
add to favorites
launch autoscroll
font size
0
reset
how to read this tab
guitar tuner
Tab Pro tools
  • play this tab
  • loop segment
  • change instrument
  • show fretboard
  • metronome
×
Best way to learn
"Who I Am Hates Who Ive Been"
Autoscroll
slow
fast
+/-
esc
set tempo
stop
Contributor
Tuning
D A D G B E
Intro (Play Twice)
Guiter I
e------------------|-----------------|-----------------|
B-5--0--9-0-7-0-5-0|--4-0—5-0—7-0—4-0|--4-0—5-0—4-0—5-0|
G------------------|-----------------|-----------------|
D------------------|-----------------|-----------------|
A------------------|-----------------|-----------------|
D------------------|-----------------|-----------------|

e------------------|
B—7-0—9-0—4-0—5-0--|
G------------------|
D------------------|
A------------------|
D------------------|

Guitar II |-X2-|
e-------------|--------|
B-------------|--------|
G-2--4--6-----|-2---4--|
D-2--4--6--2--|-2---4--|
A-0--2--4--2--|-0---2--|
D----------2--|--------|

Verse (00:26)
Guitar I Play Intro

Guitar II
(until)  |-X2-|
e---|---|---|
B---|---|---|
G-4-|-2-|-4-|
D-4-|-2-|-4-|
A-2-|-0-|-2-|
D---|---|---|
  p.m. ………

Prechorus
Both
e---|---------|------------------------|---------------|
B---|---------|------------------------|---------------|
G-4-|-----9-4-|-4--8-----------6-6---4-|---------------|
D-4-|--2--9-4-|-4--8|-6---7----6|6---4|----------------|
A-2-|--2--7-2-|-2--6|-6---7----4|4---2|-7---7--9-9-9---|
D---|--2------|--—--|-6---7-----|-----|4-4—5-5-9-9-9---|
				      Pm . . . .
Chorus
Guitar I |-X13-|
e---|-------------|--------|
B---|-------------|--------|
G-9-|--9---11---13|-13---16|
D-9-|--9-/-11-/-13|-13---16|
A-7-|--7-/-9--/-11|-11---14|
D---|-------------|--------|
Guitar II
e-----------------------------------|
B-----------------------------------|
G-----4-------4-------4----6---2---4|
D-2---4---6---4---2---4----6---2---4|
A-2---2---6---2---2---2----4---0---2|
D-2-------6-------2-----------------|

Post Chorus
Guitar I Play Intro X2
Guitar II |-X2-|
e------------------|
B------------------|
G-2---4---6--------|
D-2---4---6---2----|
A-0---2---4---2----|
D-------------2----|
	|x2|
e--------------|
B--------------|
G-9---2---6---4|
D-9---2---6---4|
A-7---0---4---2|
D--------------|
Pm ……………………………………
Verse II
Guitar I
e-----------|
B-----------|
G-9--8--9--8|
D-9--8--9--8|
A-7--6--7--6|
D-----------|
Guitar II
e----------|
B----------|
G-2---4---6|
D-2---4---6|
A-0---2---4|
D----------|
Both
e-----|
B-----|
G-----|
D-2-4-|
A-0-2-|
D-----|
Pm……………
PreChorus

Chorus

e-------------------------------------|----------|
B-------------------------------------|----------|
G---------------5-------4----6---2---4|-6-2-----4|
D---------------5---2---4----6---2---4|-6-2-2-4-4|
A-7-7-2-X-X-X---3---2---2----4---0---2|-4-0-2-4-2|
D-6-7-2-X-X-X-------2-----------------|-----2-4--|
Pm……………

Chorus

Guitar I Palm Mute The Intro then play
e--4---4---2|
B--5---5---4|
G-----------|
D-----------|
A-----------|
D-----------|

Guitar II Play Intro then play

e------|
B------|
G-2---4|
D-2---4|
A-0---2|
D------|
comments
We did not receive enough feedback on this tab! Please rate:
print report bad tab
1 2 3 4 5
1 comment total.
0 reply
brandy wrote on December 31 2005, 11:18 am

not bad. could use a little work

I want to post or [tab]
guest
You may want to rate the tab now too:
select rating
Please do not post tabs as comments. Select "correction" instead!