Oops, an error
Loading. Please wait.

Who I Am Hates Who Ive Been Tab

version 3
version 3

Whole song

Interactive

13,192 views 3 this week
2 commentsread comments
1 2 3 4 5
accurate
x 3
add to favorites
launch autoscroll
font size
0
reset
how to read this tab
guitar tuner
Tab Pro tools
  • play this tab
  • loop segment
  • change instrument
  • show fretboard
  • metronome
×
Best way to learn
"Who I Am Hates Who Ive Been"
Autoscroll
slow
fast
+/-
esc
set tempo
stop
Contributor
Difficulty
intermediate
Relient K
Who I Am Hates Who I've Been

Eb tuning (Eb Ab Db Gb Bb eb)

guitar 1
                          x2      
eb|---------------------------------------------------------------|---------|
Bb|5-0-9-0-7-0-5-0-4-0-5-0-7-0-4-0-4-0-5-0-4-0-5-0-7-0-9-0-4-0-5-0|-5--5--4-|
Gb|---------------------------------------------------------------|---------|
Db|---------------------------------------------------------------|---------|
Ab|---------------------------------------------------------------|---------|
Eb|---------------------------------------------------------------|---------|

guitar 2                  x2
eb|------------------------------------------------------------------|--------|
Bb|------------------------------------------------------------------|--------|
Gb|2-2-2-2-2-2-2-2--4-4-4-4-4-4-4-4--6-6-6-6-6-6-6-6-----------------|-2--2--4|
Db|2-2-2-2-2-2-2-2--4-4-4-4-4-4-4-4--6-6-6-6-6-6-6-6--2-2-2-2-2-2-2-2|-2--2--4|
Ab|0-0-0-0-0-0-0-0--2-2-2-2-2-2-2-2--4-4-4-4-4-4-4-4--2-2-2-2-2-2-2-2|-0--0--2|
Eb|---------------------------------------------------0-0-0-0-0-0-0-0|--------|

guitar 3 Plays the same thing as guitar 2 first time then...

eb|--------------------------------------------------------------------|
Bb|9-0-12-0-10-0-9-0-7-0-9-0-10-0-7-0-7-0-9-0-7-0-9-0-10-0-12-0-7-0-9-0|
Gb|--------------------------------------------------------------------|
Db|--------------------------------------------------------------------|
Ab|--------------------------------------------------------------------|
Eb|--------------------------------------------------------------------|

eb|---------|
Bb|-9--9--7-|
Gb|---------|
Db|---------|
Ab|---------|
Eb|---------|

Verse
Piano plays first
Guitar 1 Clean
Guitar 2 Clean Strums Chords

|0~-0~-0~-|   |-----------------------------------------------|
|0~-0~-0~-|   |-----------------------------------------------|
|2~-4~-6~-|x2 |2-2-2-2-2-2-2-2-2-2-2-2-2-2-2-2-4-4-4-4-4-4-4-4|
|2~-4~-6~-|   |0-0-0-0-0-0-0-0-0-0-0-0-0-0-0-0-2-2-2-2-2-2-2-2|
|0~-2~-4~-|   |0-0-0-0-0-0-0-0-0-0-0-0-0-0-0-0-2-2-2-2-2-2-2-2|
|---------|   |-----------------------------------------------|
               . . . . . . . . . . . . . . . . . . . . . . .
                                   P.M.

Prechorus

|----------------------------------------|
|-----9--9-4--4-8--8-------6-6-6-6-4--4--|
|2--2-x--x-4--4-x--x-------6-6-6-6-4--4--|
|2--2-7--7-2--2-6--6-6--7--4-4-4-4-2--2--|
|0--0----------------6--7----------------|
|--------------------4--5----------------|

|------------------------------------------|
|-----9--9-4--4-8--8-----------------------|
|2--2-x--x-4--4-x--x---------------44444444|
|2--2-7--7-2--2-6--6---------------44444444|
|0--0--------------------7------7--22222222|
|-------------------4-4----5-5-------------|
                    . .    . .     ........
                            P.M.
    A              B
|0-----------|0-----------|          |0---------------|
|0-----------|0-----------|          |0---------------|
|2-----4-4-4-|6-----4-4-4-|          |6-----2----4----|
|2-x28-4-4-4-|6-x28-4-4-4-| Repeat A |6-x16-2-x8-4-x8-|
|1-----2-2-2-|4-----2-2-2-|          |4-----0----2----|
|0-----------|0-----------|          |0---------------|

Repeat Intro

2nd Verse
Played with Chorus Effect

|-----------------------|
|-----------------------|
|------2-----6-----4----|
|2-----2-x16-6-x16-4-x16|x2
|2-x16-0-----4-----2----|         
|0----------------------|          *The first power chord played isn't palm
 ...................               muted. JUST the first one. On the second
   P.M*                            time, let of the palm mute a little on 
                                   the last power chord*
     A                 B
|----------0----|  |--------------|
|----------8----|  |--------------|
|2----4----6----|  |2-----4-------|
|2-x8-4-x8-6-x16|x2|2-x16-4-x9----|
|0----2----4----|  |0-----2-------|
|---------------|  |--------------|
                    .......
                       P.M

Guitar 3 plays   Gb|------4~~-----| when Guitars 1 and 2 play the last palm
muted power chord

Play prechorus and chorus except hold out the first E chord in the prechorus

Bridge

|----------------------|--------------------|
|----------------------|--------------------|
|---------------5----5~|6----2---------4----|
|6----7----2----6-x4-6~|6-x8-2-x8-2----4-x8-|
|6-x8-7-x8-2-x8-3----3~|4----0----2-x8-2----|
|4----5----0-----------|----------0---------|

Go back to chorus
Then play..
Guitar 1

|---------------------------------------------------------------|
|5-0-9-0-7-0-5-0-4-0-5-0-7-0-4-0-4-0-5-0-4-0-5-0-7-0-9-0-4-0-5-0|
|---------------------------------------------------------------|
|---------------------------------------------------------------|x2 
|---------------------------------------------------------------|
|---------------------------------------------------------------|
 . . . . . . . . . . . . . . .  Second time no P.M.

Guitar 2

|------------------------------------------------|
|------------------------------------------------|
|------------------6---------2----4----6---------|
|2-2------2-2------6-x8-2----2-x8-4-x8-6-x8-2----|
|2-2------2-2------4----2-x8-0----2----4----2-x8-|
|0-0------0-0-----------0-------------------0----|
 . .      . .
    P.M.
I couldnt write out the timing right here so just figure it out
             
Guitar 3

|---------------------------------------------------------------------|
|9-0-12-0-10-0-9-0-7-0-9-0-10-0-7-0-7-0-9-0-7-0-9-0-10-0-12-0-7-0-9-0-|
|---------------------------------------------------------------------|
|---------------------------------------------------------------------|
|---------------------------------------------------------------------|
|---------------------------------------------------------------------|
Same palm muting as guitar 1

Guitar 1            Guitar 2            Guitar 3
|---------|         |---------|         |-16--16--14~|
|-5--5--4~|         |---------|         |------------|
|---------|         |-2--2--4~|         |------------|
|---------|         |-2--2--4~|         |------------|
|---------|         |-0--0--2~|         |------------|
|---------|         |---------|         |------------|
comments
We did not receive enough feedback on this tab! Please rate:
print report bad tab
1 2 3 4 5
2 comments total.
0 reply
c_e_a_1234 wrote on December 27 2006, 04:05 pm

its alittle hard to read but nice tab

0 reply
Dante219 wrote on August 5 2008, 01:04 am

good tab but a lil out of whack.im putting up a version too and urs is quite close to mine so feel free to check it out.

I want to post or [tab]
guest
You may want to rate the tab now too:
select rating
Please do not post tabs as comments. Select "correction" instead!