Oops, an error
Loading. Please wait.

Who I Am Hates Whove Ive Been Tab

5,387 views 1 this week
1 commentread comment
1 2 3 4 5
please rate
add to favorites
launch autoscroll
font size
0
reset
how to read this tab
guitar tuner
Tab Pro tools
  • play this tab
  • loop segment
  • change instrument
  • show fretboard
  • metronome
×
Best way to learn
"Who I Am Hates Whove Ive Been"
Autoscroll
slow
fast
+/-
esc
set tempo
stop
Contributor
Artist: Relient K
Title: Who I am hates who've I've been
CD: Mmhmm
Tabbed by Sully

TUNING:half step down (Eb Ab Db Gb Bb Eb) 

intro
guitar 1     

eb----------------------------------------------------------------|---------
Bb--5-0-9-0-7-0-5-0-4-0-5-0-7-0-4-0-4-0-5-0-4-0-5-0-7-0-9-0-4-0-5-|----55-4-
Db----------------------------------------------------------------|---------
Gb----------------------------------------------------------------|---------
Ab----------------------------------------------------------------|---------
Eb----------------------------------------------------------------|---------
                                                   
guitar 2
                   2x                      
eb----------------------------------------------------------------|---------
Bb----------------------------------------------------------------|---------
Gb----------------------------------------------------------------|---------
Db--22222222--44444444--66666666--22222222------------------------|----22-4-
Ab--00000000--22222222--44444444--22222222------------------------|----00-2-
Eb--------------------------------00000000------------------------|---------
                                        
verse 1: Piano is played and right after that you play:
   (clean)                 (distortion)
eb--0~-0~-0~----------|----------------------------
Bb--0~-0~-0~----------|----------------------------
Gb--2~-4~-6~----------|--2222222222222222-444444444
Db--2~-4~-6~----------|--2222222222222222-444444444
Ab--0~-2~-4~----------|--0000000000000000-222222222
Eb--------------------|--**************** ********-
      2x                 *palm muted
(guitar2 strums chords)

pre chorus:
eb-----------------------------|----------------------------------|
Bb-----------------------------|----------------------------------|
Gb----999---8888---------------|----999---8888--------------------|
Db--2-xxx-9-9999-6-9-10--9-9---|--2-xxx-9-9999-----------99999999-|
Ab--2-777-9-6666-7-9-10--9-9---|--2-777-9-6666----7----7-99999999-|
Eb--0-----7------4-7-9---7-7---|--0-----7------44---55---77777777-|
                                               **   **   ******** 

chorus:         
eb--0000000000-----0000000000-----0000000000-----0000000000-000000-0000000-|
Bb--0000000000-----0000000000-----0000000000-----0000000000-000000-0000000-|
Gb--0000000000-444-6666666666-444-0000000000-444-6666666666-000000-4444444-|
Db--2222222222-444-6666666666-444-2222222222-444-6666666666-222222-4444444-|
Ab--2222222222-222-4444444444-222-2222222222-222-4444444444-222222-2222222-|
Eb--0000000000--------------------0000000000-------------------------------|

Guitar 2 play this the whole chorus 
Gb-9-                                          Gb-9--8---9--13--11-
Db-x- Then at the end of the chorus play this: Db-x--x---x--x---x--
Ab-7-                                          Ab-7--6---7--11--9--

play the intro after chorus without the ending chords

verse 2
        2x
eb----------------------------------------------------------------------|
Bb----------------------------------------------------------------------|
Gb-------------------2222222222222222-6666666666666666-4444444444444444-|
Db--2222222222222222-2222222222222222-6666666666666666-4444444444444444-|
Ab--2222222222222222-0000000000000000-4444444444444444-2222222222222222-|
Eb--0000000000000000-****************-****************-****************-|
     ***************                                   (the second time
                                                        let off the palm
                                                        mute half way)
      2x
eb-------------44444---|--------------------------------|
Bb-------------44444---|--------------------------------|
Gb-22222-44444-88888---|--2222222222222222-444444444----|
Db-22222-44444-66666---|--2222222222222222-444444444----|
Ab-00000-22222-44444---|--0000000000000000-222222222----|
Eb---------------------|--****************-*********----|

pre-chorus

eb-0~~--|----------------------------|----------------------------------|
Bb-0~~--|----------------------------|----------------------------------|
Gb-1~~--|----999-4-8888-----6666-4-4-|----999-4-8888-----------44444444-|
Db-2~~--|--2-xxx-4-xxxx-6-7-xxxx-4-4-|--2-xxx-4-xxxx-----------44444444-|
Ab-2~~--|--2-777-2-6666-6-7-4444-2-2-|--2-777-2-6666----7----7-22222222-|
Eb-0~~--|--0------------4-5----------|--0------------44---55---********-|
                                                     **   **
                                              
chorus                     
                                                                            
bridge                                                                      

eb-----------------------------------------------------------------------|
Bb-----------------------------------------------------------------------|
Gb--------------------------5555-5~--66666666-22222222----------44444444-|
Db--77777777-77777777-22222-6666-6~--66666666-22222222-22222222-44444444-|
Ab--77777777-77777777-22222-3333-3~--44444444-00000000-22222222-22222222-|
Eb--44444444-55555555-00000-****-----------------------00000000----------|
    ******** ******** ***** 

play chorus one time 
outro

guitar 1           2x
eb----------------------------------------------------------------|-------|
Bb--5-0-9-0-7-0-5-0-4-0-5-0-7-0-4-0-4-0-5-0-4-0-5-0-7-0-9-0-4-0-5-|-5-5--4|
Gb--*-*-*-*-*-*-*-*-*-*-*-*-*-*-*-*-------------------------------|-------|
Db------------(first time play palm mutes,second time-------------|-------|
Ab--------------play it all open)---------------------------------|-------|
Eb----------------------------------------------------------------|-------|
                                                   
guitar 2
eb----------------------------------------------------------------|-------|
Bb----------------------------------------------------------------|-------|
Gb---------66666666----------22222222-44444444-66666666-----------|--22-4-|
Db--22-22--66666666-22222222-22222222-44444444-66666666-22222222--|--22-4-|
Ab--22-22--44444444-22222222-00000000-22222222-44444444-22222222--|--00-2-|
Eb--00-00-----------00000000----------------------------00000000--|-------|
    ** **
comments
We did not receive enough feedback on this tab! Please rate:
print report bad tab
1 2 3 4 5
1 comment total.
0 reply
SullysGibson wrote on January 18 2006, 12:21 pm

Sorry I'm an idiot and i cant spell....Who I Am Hates Who I've Been

I want to post or [tab]
guest
You may want to rate the tab now too:
select rating
Please do not post tabs as comments. Select "correction" instead!