Oops, an error
Loading. Please wait.

Friends Tab

version 2
version 2

Whole song

7,828 views 3 this week
5 commentsread comments
1 2 3 4 5
x 10
add to favorites
launch autoscroll
font size
0
reset
how to read this tab
guitar tuner
Autoscroll
slow
fast
+/-
esc
set tempo
stop
Help us to improve Ultimate-Guitar.com Take our survey!
×
F.R.I.E.N.D.S Intro

I was just messing around with my guitar and figured it out, sounds quite good :)

e|--------------------------------------------------------------------------------------|
B|-----------2--2--------------------------------2--2-----------------------------------|
G|----------------4-2-0-----0--2-4------2----------------4-2-0-------0--2-4-2-----------|
D|--------------------------------------------------------------------------------------|
A|--------0------------------------------------0----------------------------------------|
E|--------------------------------------------------------------------------------------|

Dark_Magician 2002 (nicks_mem@yahoo.co.uk)
Suggest correction
comments
print report bad tab
5 comments total. Showing first comments.
-1 reply
ryandude 10 Nov 08, 2004 12:00 AM

it sounds gr8 ,5 stars

-1 reply
Clare 10 Feb 11, 2005 12:00 AM

yeah, very nice!

-2 reply
kingale 116 May 13, 2005 12:00 AM

Close enough mate but you got it a little wrong. lol

it should be:
----2--2p0-------------------------
----------2-0-0-2/4-2--------------
-----------------------------------
----------------------------------- repeat x2
-----------------------------------
-----------------------------------


cheers
www.stickykey.co.uk

guest
You may want to rate the tab now too:
select rating
Wanna post a correction for this tab? Suggest correction