Oops, an error
Loading. Please wait.

Ill Be There For You Bass Tab

version 1
version 1

Whole song

32,503 views 78 this week
no commentswrite comment
1 2 3 4 5
excellent!
x 9
add to favorites
launch autoscroll
font size
0
reset
guitar tuner
Autoscroll
slow
fast
+/-
esc
set tempo
stop
Help us to improve Ultimate-Guitar.com Take our survey!
×
Title: I'll be there for you
Artist: The Rembrandts 
Instrument: 4 String Bass
Tuning: Standard (E A D G)


[Intro]

G|----------------|----------------|----------------|----------------||
D|----------------|----------------|----------------|----------------||
A|----------------|------------7-/-|12--------------|----------------||
E|------------0-/-|5---------------|----------------|----------------||
  4th bar          A                A                A

G|---------12-----||
D|---/14------14--||
A|----------------||
E|----------------||
  A


[Verse]

G|----------------|----------------|----------------|----------------||
D|----------------|----------------|----------------|----------------||
A|----------------|----------------|----------------|------------2---||
E|5-----5---5---0-|5----5---5----0-|5----5---5----0-|3-----3-3-3---3-||
  A                A                A                G5
G|----------------|----------------|----------------|----------------||
D|----------------|----------------|----------------|----------------||
A|----------------|----------------|--------------2-|4-----4-------4-||
E|5-----5---5---0-|5----5---5----0-|5----5---5------|------------4---||
  A                A                A                C#m

  Pre chorus
G|----------------|----------------|----------------|----------------||
D|----------------|----------------|----------------|7----7-7------7-||
A|5-----5---5-5-5-|2----2----2-2-2-|------------4-7-|----------------||
E|----------------|----------------|5----5----5-----|------------5---||
  G/D              Bm               Asus2            Asus2
G|----------------|----------------|----------------|----------------||
D|------5-----5---|-----4----------|----------------|----------------||
A|----------------|----------------|----------------|7-7-7-7-7-7-7-7-||
E|3---------------|2-----------2---|0-0-0-0-0-0-0-0-|----------------||
  G                D/F#             E                E


[Chorus]

G|----------------|----------------|----------------|----------------||
D|----------------|------------4---|2-----2---2-2---|2-----2---4-----||
A|------------4---|5----5----5-----|--------------2-|----2-------2---||
E|5-----5---------|----------------|----------------|----------------||
  A                D                E                E
G|----------------|----------------|--------------9-|--9-9-9-9-7-----||
D|----------------|------------4---|2-----2-2-5-----|------------9---||
A|--------------4-|5----5----5-----|------------7---|----------------||
E|5-----5---5-7---|----------------|----------------|----------------||
  A                D                E                E
G|----------------|----------------|----------------|----------------||
D|----------------|----4-------4---|2---2-2-2-2-2-2-|2-----2---------||
A|--------------4-|5-----5---5-----|----------------|----2-----------||
E|5-----5---5-7---|----------------|----------------|----------0-2---||
  A                D                E                E
G|----------------|----------------||
D|----5-5-5-5-5-5-|----------------||
A|----------------|------------2---||
E|3---------------|3----3----3-----||
  G                G


  End of second chorus
G|--------------7-|----------------|----------------|----------------||
D|------5---5-5---|5----5----------|------------2-/-|7---7-7-7-7-7-7-||
A|----------------|----------------|----------------|----------------||
E|3---------------|----------0-2-3-|5---------------|----------------||
  G                G                A                A



  [Middle]

G|----------------|7----7----7-----|----------------|7/9-----7-------||
D|----------4-7---|--------------7-|----------4-7---|----------------||
A|5-----5---------|----------------|5---5---5-------|----------------||
E|----------------|----------------|----------------|----------------||
  D                D                D                D
G|----------------|----------------|----------------|----------------||
D|----------------|4----4----4-4---|----------------|----------------||
A|------------4---|--------------4-|----------------|0-----0-2-4-----||
E|2-----2---2-----|----------------|2-----2---2-4---|----------------||
  F#m              F#m              F#m              F#m
G|----------------|4----4----4-----|----------------|2-----2---------||
D|----------0-2-4-|----------------|--------------2-|----------------||
A|2-----2---------|----------------|0-----0-----4---|----------------||
E|----------------|----------------|----------------|--------------0-||
  Bm               Bm               D/A              D/A
G|----------------|----------------|----------------|----------------||
D|----------------|----------------|----------------|0---0---2---2---||
A|----------------|----------------|----------------|----------------||
E|3-----3-----3-0-|2----2-----2----|0-----0-----0---|----------------||
  G                D/F#             E                D       E


[Solo]

G|----------------|----------------|----------------|----------------||
D|2/4-4-4-4-4-4-4-|4/7-7-7-7-7-7-7-|----------------|----------------||
A|----------------|----------------|7-----7---7-----|7-----7---------||
E|----------------|----------------|--------------7-|--------------7-||
  F#m              D/A              E                E
G|----------------|----------------|----------------|--9-9-9-9-7-----||
D|---7------------|------------4---|----------------|------------9---||
A|----------0-2-4-|5----5----5-----|7---7-7-7-7-7-7-|7---------------||
E|5----5----------|----------------|----------------|----------------||
  A                D                E                E
G|----------------|----------------|----------------|----------------||
D|4---4-4-4-4-4-4-|4/7-7-7---7-7-7-|7/9-9-9---9-9-9-|9-9-9-9---9-9---||
A|----------------|----------------|----------------|----------------||
E|----------------|----------------|----------------|----------------||
  F#m              D/A              E/B              E/B
G|----------------|----------------|----------------|----------------||
D|----------------|4---4-4-4-4-4---|2---2-----2---2-|2-----2---2-4---||
A|----------------|----------------|----------------|----2-----------||
E|5-----5---5-5---|----------------|----------------|----------------||
  A                D/F#             E                E


  Extra bar onto third pre chorus
G|----------------||
D|7-7-7-7-7-7-7-7-||
A|----------------||
E|----------------||
  E


[Outro]

  Last two bars of third chorus leading to outro chorus  
G|--------------7-|----------------||
D|----5-----5-5---|5----5----------||
A|----------------|----------------||
E|3---------------|----------0-2-3-||
  G                G
G|----------------|----------------|------9-9-7---9-|--9-9-9-9-7-----||
D|----------------|------------4---|------------9---|------------9---||
A|--------------4-|5----5----5-----|7---------------|----------------||
E|5-----5-----5---|----------------|----------------|----------------||
  A                D                E                E
G|----------------|----------------|----------------|----------------||
D|----------------|------------4---|2-----2---2-2-2-|2-2-0-----------||
A|------------2-4-|5----5----5-----|----------------|------4---4-2---||
E|5-----5---5-----|----------------|----------------|----------------||
  A                D                E                E
G|----------------|----------------|----------------|----------------||
D|----------------|------------4---|2-----2-2-2-2-2-|2-----2---2-4---||
A|------------2-4-|5----5----5-----|----------------|----2-----------||
E|5-----5---5-----|----------------|----------------|----------------||
  A                D                E                E
G|----------------|----------------|----------------||
D|5---------------|----------------|----------------||
A|----------------|----------------|----------------||
E|----------------|--------3-------|5---------------||
  G                G                A


[Intro]
[Verse]

[pre chorus]
[Chorus 1]

[Verse]

[pre chorus]

[Chorus 2]

[middle]

[Solo]

[pre chorus](with extra E bar)

[Chorus]

[outro chorus]



************************************

| /  Slide up

************************************
Suggest correction
What's this?
You can suggest a correction to this tab. Community and Mods will review your correction and vote to approve or reject it.
comments
print report bad tab
guest
You may want to rate the tab now too:
select rating
Please do not post tabs as comments. Select "correction" instead!