Oops, an error
Loading. Please wait.

Ill Be There For You Tab

version 1
version 1

Whole song

269,000 views 498 this week
13 commentsread comments
1 2 3 4 5
accurate
x 49
add to favorites
launch autoscroll
font size
0
reset
how to read this tab
guitar tuner
Autoscroll
slow
fast
+/-
esc
set tempo
stop
Help us to improve Ultimate-Guitar.com Take our survey!
×
This Song is Tabbed by Marcus Teo !!!

Hi all Marcus here this is the 1st song i try to tab!!! hmm it is somehow familiar
with the original hope u haf fun with it ! Try it out and if there is ani problems
email me at marcteo50@hotmail.com
_____________________________________________________________________________________
[Intro]
(Played 4 times)

e|--------------------------------------|
B|----0s2-h2s0--------------------------|
G|-------------2-0-0-2-2h4-2------------|
D|--------------------------------------|
A|--0-----------------------------------|
E|--------------------------------------|
 (BASS GUITAR PART AFTER THE LAST TIME OF SOLO)

G|-----------|
D|--h2-5h2---|
A|-----------|
E|-----------|

A                                         G
So no one told you life was gonna be this way
A                                                     C#m
Your job's a joke, you're broke, your love life's D.O.A.
G                Bm              A
It's like you're always stuck in second gear
        G                D                    E
When it hasn't been your day, your week, your month, or even your year but


[Chorus]

A       D          E
I'll be there for you (When the rain starts to pour)
A       D          E
I'll be there for you (Like I've been there before)
A       D          E                              G
I'll be there for you ('Cause you're there for me too)

(Fill 1: Played at the end of each of the first two lines of the chorus)

e|---0-0--------0--0-0-0-0-0-----------|
B|------3-0----------------3-2-0-------|
G|------------------------------2------|
D|-------------------------------------|
A|-------------------------------------|
E|-------------------------------------|


(Fill 2: Played on the G chord at the end of the chorus)

e|--------------------------|
B|--0--0---0--1--0-----0----|
G|-------2----------2-------|
D|--------------------------|
A|--------------------------|
E|--------------------------|

A                                            G
You're still in bed at ten and work began at eight
A                                                  C#m
You burned your breakfast so far, things are going great
G           Bm                    A
Your mother warned you there'd be days like these
        G               D                  E
But she didn't tell you when the world has brought you down to your knees that


[Chorus]

A       D          E
I'll be there for you (When the rain starts to pour)
A       D          E
I'll be there for you (Like I've been there before)
A       D          E                              G       A
I'll be there for you ('Cause you're there for me too)

 (played at the A chord after the G chord solo)
e|----------------------------|
B|----------------------------|
G|---------------2---2--2-----|
D|-------------2---2----------|
A|----0-2----2---2-----2------|
E|----------------------------|

D
No one could ever know me
D
No one could ever see me
F#m
Sometime the only one who knows what its like to be me
Bm                            Bm7
Someone to face the day with, make it through all the mess with
G            D                  E              D         E        F#m
Someone I'll always laugh with, even under the worst I'm best with you

(Solo: Starts when the word 'you' is sung)

    F#m      Bm         Esus  E                A     D    E
e|-------------------------------------------------------------|
B|--2-2-2-2-2-2-2-2-2-2--0-0---0--0---0----0-s2----2--0--------|
G|--------------------------------------2---------------2--1---|
D|---------------------------------------------2-s4------------|
A|-------------------------------------------------------------|
E|-------------------------------------------------------------|

               F#m           Bm        Esus      E                A
e|------------------------------------------------------------|
B|------------------------------------------------------------|
G|------------------------------------------------------------|
D|--4--2------------------------------------------------------|
A|--------4--2--4-4-4-4-4-4-4-4------0-s4--2--2---------------|
E|------------------------------2-2---------------------------|

e|-------------------------|
B|-----------------0-------|
G|-2-2-2--1-1-1--2---2-----|
D|-------------------------|
A|-------------------------|
E|-------------------------|
      D       E
E|------------------------0--2--5--7--------------------------|
B|---------------0--2--3--------------------------------------|
G|-----2-----2------------------------------------------------|
D|--2-----0---------------------------------------------------|
A|------------------------------------------------------------|
E|------------------------------------------------------------|

G                Bm              A
It's like you're always stuck in second gear
        G                D                    E    (play out the E longer)
When it hasn't been your day, your week, your month, or even your year but


[Chorus]

A       D          E
I'll be there for you (When the rain starts to pour)
A       D          E
I'll be there for you (Like I've been there before)
A       D          E                              G
I'll be there for you ('Cause you're there for me too)

Note: Don't play Fill 2 here

(Chorus again)

(Fill 3: Play while singing 'I'll be there for you' - only on last chorus)

e|--------------------------|
B|--------------------------|
G|--------------------------|
D|--------------------------|
A|--4-------0-s4--2---------|
E|-----2--2-----------------|

A       D          E
I'll be there for you
A       D          E
I'll be there for you
A       D          E                              G    A
I'll be there for you ('Cause you're there for me too)
Suggest correction new What's this?
You can suggest a correction to this tab. Community and Mods will review your correction and vote to approve or reject it.
comments
print report bad tab
13 comments total. Showing first comments. show 2 bad comments
0 reply
$hab 873 wrote on February 29 2004, 12:00 am

Can anyone like, tab the chord Esus for me please? Cos I'm stupid n don't know all the chords.

guest
You may want to rate the tab now too:
select rating
Please do not post tabs as comments. Select "correction" instead!