Oops, an error
Loading. Please wait.

Ill Be There For You Tab

version 2
version 2

Whole song

45,831 views 69 this week
2 commentsread comments
1 2 3 4 5
x 19
add to favorites
launch autoscroll
font size
0
reset
how to read this tab
guitar tuner
Autoscroll
slow
fast
+/-
esc
set tempo
stop
Help us to improve Ultimate-Guitar.com Take our survey!
×
Author
I'll be there for you
Standard Tuning

  [Intro]
e|---------------------------------------------------|
B|---------------------------------------------------|
G|------5/6-5/6\4--2-0-0-2-2/4-2---------------------|  x4
D|---------------------------------------------------|
A|----0----------------------------------------------|
E|---------------------------------------------------|

[Verse]
A                                          G
So no one told you life was gonna be this way
A                                                      C#m
Your job's a joke you're broke your love life's D.O.A.
G               Bm               A
It's like you're always stuck in second gear
        G               D                     E
When it hasn't been your day, your week, your month, or even your year

  [Chorus]
     A         D           E
  But, I'll be there for you (When the rain starts to pour)
e|----------------------------------------------------------|
B|--4/5—-5\-3—0-—4/5--5--5--5--3--0-------------------------|
G|----------------------------------2-----------------------|
D|----------------------------------------------------------|
A|----------------------------------------------------------|
E|----------------------------------------------------------|

  A       D           E
  I'll be there for you (Like I've been there before)
e|----------------------------------------------------------|
B|--4/5—-5\-3—0-—4/5--5--5--5--3--0-------------------------|
G|----------------------------------2-----------------------|
D|----------------------------------------------------------|
A|----------------------------------------------------------|
E|----------------------------------------------------------|

  A       D           E                             G
  I'll be there for you ('Cause you're there for me too)
e|--------------------------------------------------------|
B|-----------------0h1------------------------------------|
G|---2/4—2/4—2--4-------4-2-4--2-2------------------------|
D|--------------------------------------------------------|
A|--------------------------------------------------------|
E|--------------------------------------------------------|

A                                           G
You're still in bed at 10 and work began at 8
A                                                   C#m
You burned your breakfast so far, things are going great
G             Bm                 A
Your mother warned you there'd be days like these

e|---------------------------------------------------|
B|---------------------------------------------------|
G|--------------2-------2----------------------------|
D|-----------2-------2-------------------------------|
A|--0--2--4-------4-------0--2-----------------------|
E|---------------------------------------------------|

          G              D                          E
But she didn't tell you when the world has brought you down to your knees

  [Chorus]
e|---------------------------------------------------|
B|---------------------------------------------------|
G|--------------2-------2----2-----------------------|
D|-----------2-------2-------------------------------|
A|--0--2--4-------4-------0--------------------------|
E|---------------------------------------------------|

  D
  No one could ever know me No one could ever see me
e|---------------------------------------------------|
B|-----------3----5----------------3----5-----3------|
G|-----2---------------2-------2-----------------2---|
D|4------------------------4-------------------------|
A|---------------------------------------------------|
E|---------------------------------------------------|

  F#m
  Sometimes the only one who knows what its like to be me
e|---------------------------------------------------|
B|---------------------------------------------------|
G|-----------2----4----2-------------2----4----2-----|
D|------4-----------------4------4-----------------4-|
A|---------------------------------------------------|
E|--2------------------------2-----------------------|

  Bm                          A
  Someone to face the day with, make it through all the mess with
e|---------------------------------------------------|
B|---------0----3----0------------0----3----0--------|
G|---------------------------------------------------|
D|------4--------------4-------4---------------4-----|
A|-2-----------------------0-------------------------|
E|---------------------------------------------------|

  G                               E              D         E         F#m
  Someone I'll always laugh with, even under the worst I'm best with you
e|---------------------------------------------------|
B|---------------------------------------------------|
G|----------4-----------2----------1-----------------|
D|-------5-----------4----------2--------------------|
A|----5-----------5----------2-----------------------|
E|-3-----------2----------0--------------------------|

e|-----------------------------------------0------0-----|
B|-----------------------------------------2------2-----|
G|---5/6-6-6-6-6-6-6-6-6\--2---2—4/6-4-4---2----2-------|
D|---------------------------4-------------2--2---------|
A|------------------------------------------------------|
E|------------------------------------------------------|

e|--------------------------0-----0-----0-----0---------|
B|----------------------------0-----0-----0-----0-------|
G|-2--4—4/6-------4/6--4--------2-----1-----------------|
D|----------2--4----------------------------6-----------|
A|------------------------------------------------------|
E|------------------------------------------------------|

e|------------------------------------------------------|
B|------------------------------------------------------|
G|------------------------------------------------------|
D|------------------------------------------------------|
A|--2/4-4-4-4-4-4-4-4-4\--0-----0—-2/4--2--2------------|
E|---------------------------2--------------------------|

e|---------------------------------------------------|
B|----------------------------------2/3--3-----------|
G|-1/2--2--2--1--1---2--4--2-----2-------------------|
D|----------------------------2----------------------|
A|---------------------------------------------------|
E|---------------------------------------------------|

e|-------------------------------------------------------|
B|---------------7--10-----------------------------------|
G|---4--6--7--9------------------------------------------|
D|-------------------------------------------------------| \
A|-------------------------------------------------------|  \
E|-------------------------------------------------------|
                                                             | same time(2gtrs)
                                                             |
e|----------0----|---------------------------------------|
B|----------0----|---------------------------------------|  /
G|------4--------|-x4------------------------------------| /
D|---6-----------|---------------------------------------|
A|---------------|---------------------------------------|
E|---------------|---------------------------------------|

  G               Bm               A
  It's like you're always stuck in second gear
e|---------------------------------------------------|
B|---------------------------------------------------|
G|--------------2-------2----------------------------|
D|-----------2-------2-------------------------------|
A|--0--2--4-------4-------0--2-----------------------|
E|---------------------------------------------------|

        G                  D                    E
When it hasn't been your day, your week, your month, or even your year

  A         D           E
  But, I'll be there for you (When the rain starts to pour)
e|----------------------------------------------------------|
B|--4/5—-5\-3—0-—4/5--5--5--5--3--0-------------------|
G|----------------------------------2-----------------------|
D|----------------------------------------------------------|
A|----------------------------------------------------------|
E|----------------------------------------------------------|

  A       D           E
  I'll be there for you (Like I've been there before)
e|----------------------------------------------------------|
B|--4/5—-5\-3—0-—4/5--5--5--5--3--0-------------------------|
G|----------------------------------2-----------------------|
D|----------------------------------------------------------|
A|----------------------------------------------------------|
E|----------------------------------------------------------|

  A       D           E                             G
  I'll be there for you ('Cause you're there for me too)
e|------------------------------------------------------|
B|---4/5--5--3—0--4/5--5--5--5--3--0--------------------|
G|------------------------------------------------------|
D|------------------------------------------------------|
A|------------------------------------------------------|
E|------------------------------------------------------|

  A         D           E
  But, I'll be there for you (When the rain starts to pour)
e|---------------------------------------------------|
B|---1/2-------1/2--0--------------------------------|
G|---------------------------------------------------|
D|-------2--4----------------------------------------|
A|---------------------------------------------------|
E|---------------------------------------------------|

e|----------------------------------------------------------|
B|--4/5—-5\-3—0-—4/5--5--5--5--3--0-------------------------|
G|----------------------------------2-----------------------|
D|----------------------------------------------------------|
A|----------------------------------------------------------|
E|----------------------------------------------------------|

  A       D           E
  I'll be there for you (Like I've been there before)
e|----------------------------------------------------------|
B|--4/5—-5\-3—0-—4/5--5--5--5--3--0-------------------------|
G|----------------------------------2-----------------------|
D|----------------------------------------------------------|
A|----------------------------------------------------------|
E|----------------------------------------------------------|

  A       D           E                             G
  I'll be there for you ('Cause you're there for me too)
e|--------------------------------------------------------|
B|-----------------0h1------------------------------------|
G|---2/4—2/4—2--4-------4-2-4--2-2------------------------|
D|--------------------------------------------------------|
A|--------------------------------------------------------|
E|--------------------------------------------------------|

great song
peace

************************************

| /  Slide up
| \  Slide down
| h  Hammer-on
| x  Dead note

************************************
Suggest correction
comments
print report bad tab
2 comments total.
-2 reply
$hab 687 Feb 25, 2004 12:00 AM

This is just pretty much a slighly altered version of version 1, but not as correct.

0 reply
guitarhero3000 10 Aug 01, 2008 05:35 PM

dude you are incredible

guest
You may want to rate the tab now too:
select rating
Wanna post a correction for this tab? Suggest correction