Oops, an error
Loading. Please wait.

Maybe Tomorrow Tab

614 views 6 this week
no commentswrite comment
1 2 3 4 5
please rate
add to favorites
launch autoscroll
font size
0
reset
how to read this tab
guitar tuner
Autoscroll
slow
fast
+/-
esc
set tempo
stop
Help us to improve Ultimate-Guitar.com Take our survey!
×
Author
---------------------------------------------------------------------------
  REMBRANDTS - MAYBE TOMORROW (WILDE/SOLEM)
---------------------------------------------------------------------------
  Tabbed by:PJVillanueva



Intro      A     F#m6    A     F#m6    A
                                     
Verse

           E          A          Db7               F#m       
I tried to win your heart-That's when I lost my head
                Em6                D    
I should have saved up all of my feelings,
          Dm6               A
But I squandered them instead
             E       A              Fmaug5   F#m
And in one fragile moment, I could almost see
                Em6                    D
Just how things might have changed for better
              Dm6               A
I guess what is, was meant to be
        F#m6             A                          F#m6
Now I know....it's gonna take some time to let you go-Ohhh


Chorus

Dsus2    A         Dsus2         E5
MAYBE TOMORROW, MY HEART WILL MEND
Dsus2    A      B            E5
MAYBE TOMORROW, WE'LL BE FRIENDS
Dsus2    A      B          E
MAYBE TOMORROW, WHO'S TO SAY?
       Dsus2                 A             Bm  Bm-5 A
BUT TONIGHT, IT SEEMS LIKE TOMORROW, IS SO FAR A....WAY-Oh yeh


Verse

A            E       A               Db7                   F#m
Tell me what can I do, to fill the space that once held you?
           Em6           D                   Dm6             A
I see your face in every corner, hear your voice in every room
        E         A             Fmaug5           F#m
And I know this feeling, is the ghost of all our tears
            Em6            D           Dm6     A
Will you be hauntin' me forever...and ever?
     F#m6          A                          F#m6
I know.....I don't think that I can let you go-No



(CHORUS)-Hey


Solo     A    F#m6    A    F#m6

D               Bm6                D                     E7
What am I gonna do without you baby..since you've been gone?-Ooh


(CHORUS)-Yeh 

                   
Dsus2     A    D    E5
Maybe tomorrow
Dsus2     A    B    E
Maybe tomorrow
Dsus2     A    B    E
Maybe tomorrow-Who's to say-Hey!
      D                      A            Bm  Bm-5  A
But tonight, it seems like tomorrow is so far a.....way
    F#m6                A                        F#m6      A
Oh no...There's just no way that I can let you go.....No







Intro


  A                               F#m6
e|------- ------- ------- -------|------- ------- ------- -------|
B|2---2---2---2---2---2---2--2---|2---2---2---2---2---2---2--2---|
G|2---2---2---2---2---2---2--2---|2---2---2---2---2---2---2--2---|
D|2---2---2---2---2---2---2--2---|1---1---1---1---1---1---1------|
A|0--------------------------4-0-|---------------------------4---|
E|-------------------------------|2------------------------------|


  A                               F#m6
e|------- ------- ------- -------|------- ------- ------- -------|
B|2---2---2---2---2---2---2--2---|2---2---2---2---2---2---2---2--|
G|2---2---2---2---2---2---2--2---|2---2---2---2---2---2---2---2--|
D|2---2---2---2---2---2---2--2---|1---1---1---1---1---1---1---1--|
A|-------------------------------|-------------------------------|
E|0----------------------------0-|2------------------------------|





Verse

  A               E               A               Db7
e|------- ------- 0------ -------|------- ------- ------- -------|
B|2---------------0--------------|2---------------2--------------|
G|2---------------1--------------|2---------------4--------------|
D|2---------------2---2----------|2---------------3--------------|
A|0---------------0--------------|0---------------4---4----------|
E|----------------0--------------|---------------------------4---|


  F#m             Em6             D               Dm6
e|------- ------- ------- -------|2------ ------- 1------ -------|
B|2---------------2--------------|3---------------0--------------|
G|2---------------0--------------|2---------------2--------------|
D|4---------------2--------------|0---------------0----0-----0---|
A|4------------------------------|-------------0-----------------|
E|2------------1--0----0---------|-------------------------------|


  A               E               A               Fmaug5
e|------- ------- ------- -------|------- ------- ------- -------|
B|2---------------0--------------|2---------------2--------------|
G|2---------------1--------------|2---------------1--------------|
D|2---------------2--------------|2---------------3--------------|
A|0------------0-----------------|0-------0---------------4------|
E|----------------0----0-------0-|----------4-3-2-1--------------|


  F#m             Em6             D               Dm6
e|------- ------- ------- -------|2------ ------- 1------ -------|
B|2---------------2-------2------|3---------------0--------------|
G|2---------------0-------0------|2---------------2--------------|
D|4---------------2-------2------|0---------------0----0-----0---|
A|4------------------------------|-------------0-----------------|
E|2------------1--0--------------|-------------------------------|





  A                               F#m6
e|------- ------- ------- -------|------- ------- ------- -------|
B|2---2---2---2---2---2---2---2--|2---2---2---2---2---2---2---2--|
G|2---2---2---2---2---2---2---2--|2---2---2---2---2---2---2---2--|
D|2---2---2---2---2---2---2---2--|1---1---1---1---1---1---1---1--|
A|0---------------------------4-0|----------------------------4--|
E|-------------------------------|2------------------------------|


  A                               F#m6
e|------- ------- ------- -------|------- ------- ------- -------|
B|2---2---2---2---2---2---2---2--|2---2---2---2---2---2---2---2--|
G|2---2---2---2---2---2---2---2--|2---2---2---2---2---2---2---2--|
D|2---2---2---2---2---2---2---2--|1---1---1---1---1---1---1---1--|
A|-------------------------------|-------------------------------|
E|0----------------------------0-|2-----------------2-2----------|




Chorus


  Dsus2           A               Dsus2           E5
e|0------ ------- 0------ -------|0------ ------- 0------ -------|
B|3---------------5--------------|3---------------5--------------|
G|2---------------2--------------|2---------------4--------------|
D|0---------------2--------------|0------------------------------|
A|----------------4--------------|-------------------------------|
E|-------------------------------|----------------0--------------|

  Dsus2           A               B               E5
e|0------ ------- 0------ -------|2------ ------- 4------ -------|
B|3---------------5--------------|4---------------5--------------|
G|2---------------2--------------|4---------------4--------------|
D|0---------------2--------------|4------------------------------|
A|----------------4--------------|2------------------------------|
E|-------------------------------|----------------0--------------|

  Dsus2           A               B               E
e|0------ ------- 0------ -------|2------ ------- 4------ -------|
B|3---------------5--------------|4---------------5--------------|
G|2---------------2--------------|4---------------4--------------|
D|0---------------2--------------|4------------------------------|
A|----------------4--------------|2--------------------------2---|
E|-------------------------------|----------------0--------------|

  Dsus2           A               Bm      Bm-5
e|0------ ------- ------- -------|------- -------| 
B|3---------------2--------------|3-------3------|
G|2---------------2--------------|4-------4------|
D|----------------2--------------|4-------3------|
A|0---------------0--------------|2-------2------|
E|-------------------------------|---------------|


  A                               F#m6
e|------- ------- ------- -------|------- ------- ------- -------|
B|2---2---2---2---2---2---2--2---|2---2---2---2---2---2---2---2--|
G|2---2---2---2---2---2---2--2---|2---2---2---2---2---2---2---2--|
D|2---2---2---2---2---2---2--2---|1---1---1---1---1---1---1------|
A|0--------------------------4-0-|----------------------------4--|
E|-------------------------------|2------------------------------|


  A                               F#m6
e|------- ------- ------- -------|------- ------- ------- -------|
B|2---2---2---2---2---2---2---2--|2---2---2---2---2--------------|
G|2---2---2---2---2---2---2---2--|2---2---2---2---2--------------|
D|2---2---2---2---2---2---2---2--|1---1---1---1---1--------------|
A|-------------------------------|-------------------------------|
E|0---------------------------0--|2------------------------------|



Verse



Chorus

  Dsus2           A               Dsus2           E5
e|0------ ------- 0------ -------|0------ ------- 0------ -------|
B|3---------------5--------------|3---------------5--------------|
G|2---------------2--------------|2---------------4--------------|
D|0------------0--2--------------|0-------------------2----------|
A|----------------4--------------|------------------2-------2----|
E|-------------------------------|----------------0-----------4-4|

  Dsus2           A               B               E
e|0------ ------- 0------ -------|2------ ------- 4------ -------|
B|3---------------5--------------|4---------------5--------------|
G|2---------------2--------------|4---------------4--------------|
D|0------------0--2--------------|4-------------------2------2---|
A|----------------4------------4-|2-----------------2------2---4-|
E|-------------------------------|----------------0--------------|

  Dsus2           A               B               E
e|0------ ------- 0------ -------|2------ ------- 4------ -------|
B|3---------------5--------------|4---------------5--------------|
G|2---------------2--------------|4---------------4--------------|
D|0------------0--2--------------|4-------------------2-------2--|
A|----------------4------------0-|2-----------------2-------2----|
E|-------------------------------|----------------0--------------|

  Dsus2           A               Bm      Bm-5
e|0------ ------- ------- -------|------- -------| 
B|3---------------2--------------|3-------3------|
G|2---------------2--------------|4-------4------|
D|----------------2--------------|4-------3------|
A|0---------------0--------------|2-------2------|
E|-------------------------------|---------------|



Solo


  A                               F#m6
e|------- ------- ------- -------|------- ------- ------- -------|
B|2---2---2---2---2---2---2--2---|2---2---2---2---2---2---2---2--|
G|2---2---2---2---2---2---2--2---|2---2---2---2---2---2---2---2--|
D|2---2---2---2---2---2---2------|1---1---1---1---1---1---1------|
A|0--------------------------4-0-|----------------------------4--|
E|-------------------------------|2------------------------------|

e|------- ------- ------- -------|------- ------- ------- -------|
B|-------------------5----7--7B9-|---7---------------------------|
G|----------------6--------------|-----------7B8-----------------|
D|---------/-7-------------------|-------------------9-------11-9|
A|-------------------------------|-------------------------------|
E|-------------------------------|-------------------------------|

  A                               F#m6
e|------- ------- ------- -------|------- ------- ------- -------|
B|2---2---2---2---2---2---2---2--|2---2---2---2---2---2---2---2--|
G|2---2---2---2---2---2---2---2--|2---2---2---2---2---2---2---2--|
D|2---2---2---2---2---2---2---2--|1---1---1---1---1---1---1---1--|
A|-------------------------------|-------------------------------|
E|0---------------------------0--|2------------------------------|

e|------- ------- ---9--- 12--14-|------- --16B17 ------- -------|
B|----------------10-------------14B16R14-12---------------------|
G|----------/-9------------------|-------------------------------|
D|11911--------------------------|-------------------------------|
A|-------------------------------|-------------------------------|
E|-------------------------------|-------------------------------|







  D                               Bm6
e|2---2-- 2---2-- 2---2-- 2--2---|4---4-- 4---4-- 4---4-- 4---0--|
B|3---3---3---3---3---3---3--3---|3---3---3---3---3---3---3---3--|
G|2---2---2---2---2---2---2--2---|4---4---4---4---4---4---4---4--|
D|0--------------------------4-0-|-------------------------------|
A|-------------------------------|2------------------------------|
E|-------------------------------|----------------------------2--|
                  What am I gonna do without you, baby

  D                               E7
e|2---2-- 2---2-- 2---2-- 2---2--|------- ------- ------- -------|
B|3---3---3---3---3---3---3---3--|0-------0-------0-------0------|
G|2---2---2---2---2---2---2---2--|1-------1---2---1-------1------|
D|----------------0---2---4---0--|0--4----0-------0---4---0------|
A|0------------------------------|----------------------------2--|
E|-------------------------------|0---------------0--------------|
               since you've been gone ?  ............Oh



Chorus



Ending


  Dsus4           A               D               E
e|0------ ------- 0------ -------|0------ ------- 0------ -------|
B|3---------------5--------------|3---------------5--------------|
G|2---------------2--------------|2---------------4--------------|
D|0---------------2--------------|0-------------------2----------|
A|----------------4--------------|------------------2-------2----|
E|-------------------------------|----------------0-----------4--|

  Dsus4           A               B               E 
e|0------ ------- 0------ -------|2------ ------- 4------ -------|
B|3---------------5--------------|4---------------5--------------|
G|2---------------2--------------|4---------------4--------------|
D|0---------------2--------------|4------------------------------|
A|----------------4--------------|2------------------------------|
E|-------------------------------|----------------0---0------0---|

  Dsus4           A               B               E
e|0------ ------- 0------ -------|2------ ------- 4------ -------|
B|3---------------5--------------|4---------------5--------------|
G|2---------------2--------------|4---------------4--------------|
D|0------------0--2--------------|4------------------------------|
A|----------------4--------------|2------------2-----------------|
E|-------------------------------|----------------0-----------0--|

  D               A               Bm      Bm-5
e|0------ ------- 0------ -------|------- -------| 
B|3---------------2--------------|3-------3------|
G|2---------------2--------------|4-------4------|
D|----------------2--------------|4-------3------|
A|0---------------0-0------------|2-------2------|
E|-------------------------------|---------------|

  

  A                               F#m6
e|------- ------- ------- -------|------- ------- ------- -------|
B|2---2---2---2---2---2---2--2---|2---2---2---2---2---2---2--2---|
G|2---2---2---2---2---2---2--2---|2---2---2---2---2---2---2--2---|
D|2---2---2---2---2---2---2--2---|1---1---1---1---1---1---1------|
A|0--------------------------4-0-|---------------------------4---|
E|-------------------------------|2------------------------------|


  A                               F#m6
e|------- ------- ------- -------|------- ------- ------- -------|
B|2---2---2---2---2---2---2---2--|2---2---2---2---2---2---2---2--|
G|2---2---2---2---2---2---2---2--|2---2---2---2---2---2---2---2--|
D|2---2---2---2---2---2---2---2--|1---1---1---1---1---1---1---1--|
A|-------------------------------|-------------------------------|
E|0---------------------------0--|2------------------------------|


  A¨¨¨¨¨¨¨¨¨¨¨¨¨¨¨¨¨¨¨¨¨¨¨¨¨¨¨¨¨¨¨¨¨¨¨¨¨¨¨¨¨¨¨¨
e|------- ------- ------- -------|------- -----
B|2------------------------------|-------------
G|2------------------------------|-------------
D|2------------------------------|-------------
A|0------------------------------|-------------
E|-------------------------------|-------------


        B  Bend
        R  Release
        /  slide up
        \  slide down
        H  hammer-on
        P  pull-off
        ~  vibrato
        +  harmonic
        x  Mute note
        . - play note like a dot in standard notation
        ^ - ties two notes together
Suggest correction
What's this?
You can suggest a correction to this tab. Community and Mods will review your correction and vote to approve or reject it.
comments
We did not receive enough feedback on this tab! Please rate:
print report bad tab
1 2 3 4 5
guest
You may want to rate the tab now too:
select rating
Please do not post tabs as comments. Select "correction" instead!