Oops, an error
Loading. Please wait.

Pear Of Anguish Tab

228 views 1 this week
no commentswrite comment
1 2 3 4 5
3 more votes to show rating
add to favorites
launch autoscroll
font size
0
reset
how to read this tab
guitar tuner
Autoscroll
slow
fast
+/-
esc
set tempo
stop
Help us to improve Ultimate-Guitar.com Take our survey!
×
Author
Difficulty
intermediate
www.facebook.com/remnantsofcamulos

key:

B^ - bend up/sharp
/ - hammered on
p - pulled off
sq - pick harmonic squeal
( - palm muted


This is a tab for the song "Pear of Anguish" by local band of 13 year olds, Remnants of 
Camulos. theyre actually pretty amazing at guitar. and heres the tab for the whole song.

This is the acoustic part in the intro before the harmonies.

e |------------------------------------------------------------------------|
B |------------------------------------------------------------------------|
G |-------------------------------------------0----------------------------|
D |-------2-----------2-----------3--------------3-------------------------|
A |----2-----2-----2-----2-----2-----2-----2-------------------------------|
E |-0-----------0-----------0-----------0----------------------------------|

and that repeats 4 times, and then the harmonies on the high e string

Guitar 1:
e |-12-----------13---------15---13/15p-13--12-13-12--------10-12-10-------|
B |------------------------------------------------------------------------|
G |------------------------------------------------------------------------|
D |------------------------------------------------------------------------|
A |------------------------------------------------------------------------|
E |------------------------------------------------------------------------|

Guitar 2:
e |-19-----------20---------22---20/22p-20--19-20-19--------17-19-17-------|
B |------------------------------------------------------------------------|
G |------------------------------------------------------------------------|
D |------------------------------------------------------------------------|
A |------------------------------------------------------------------------|
E |------------------------------------------------------------------------|

and that repeats 4 times and then the harmonies both have a sustained open E chord and 
the high e on the 12th fret.

And now the main riff of the song/intro

e |------------------------------------------------------------------------|
B |------------------------------------------------------------------------|
G |------------------------------------------------------------------------|
D |---------------------------------------------------------2--------------|
A |-2-------------------------------2-3---2-----------------0--3-----------|
E |-0---0-0-0-0-0-0-0-0-0-0-0-0-0-0-----0-0--0-0-0-0-0-0-0-----1-----------|

that repeats 3 times and then, seperating the 1st part of the verse with the second part 
is a little minor scale thingy like this:

NO STRUMMING EXCEPT FOR THE VERY FIRST NOTE ALL FINGERS

e |------------------------------------------------------------------------|
B |------------------------------------------------------------------------|
G |------------------------------------------------------------------------|
D |------------------------------------------------------------------------|
A |------------------------------------------------------------------------|
E |--0-2-3-0-3-5-0-5-7-0-7-9-----------------------------------------------|

then back to the main riff repeat it twice then in to the 3rd part of the verse.

e |------------------------------------------------------------------------|
B |------------------------------------------------------------------------|
G |------------------------------------------------------------------------|
D |-----------2-3----------------------------------------------------------|
A |-2---------2-3--2--------------------2--1-------------------------------|
E |-0--------------0---0-0-0-0-0-0-0-0--2--1-------------------------------|

that repeats twice, and then the pre chorus

Guitar 1:
e |------------------------------------------------------------------------|
B |------------------------------------------------------------------------|
G |------------------------------------------------------------------------|
D |------------------------------------------------------------------------|
A |--22222222-55555555-77777777-88888888-----------------------------------|
E |--00000000-33333333-55555555-66666666-----------------------------------|


e |------------------------------------------------------------------------|
B |------------------------------------------------------------------------|
G |------------------------------------------------------------------------|
D |------------------------------------------------------------------------|
A |-22222222-55555555-77777777---(33333--(33333----------------------------|
E |-00000000-33333333-55555555---(11111--(11111----------------------------|

and at the same time lead guitar does this:

Guitar 2:
e |------------------------------------------------------------------------|
B |------------------------------------------------------------------------|
G |------------------------------------------------------------------------|
D |-32232232-53353353-75575575-87787787-32232232-53353353-75575575-1-------|
A |------------------------------------------------------------------------|
E |------------------------------------------------------------------------|


and then the chorus:

e |------------------------------------------------------------------------|
B |------------------------------------------------------------------------|
G |------------------------------------------------------------------------|
D |-----------------7779--5557-4--7-5-5-5-5-5-5-5-4---4-4-4-4--------------|
A |-2-2-2-2-2-2-2-2-5557--3335-2--5-3-3-3-3-3-3-3-2---2-2-2-2----33--------|
E |-0-0-0-0-0-0-0-0-5557--3335-2--5-3-3-3-3-3-3-3-2---2-2-2-2----11--------|


that only happens twicebut then you repeat all the stuff above again until the breakdown:

e |------------------------------------------------------------------------|
B |------------------------------------------------------------------------|
G |------------------------------------------------------------------------|
D |------------------------------------------------------------------------|
A |-(22222-(22222-(22222-(22222--------------------------------------------|
E |-(00000-(00000-(00000-(00000--------------------------------------------|

that happens 4 times and then the little break that has the F power chord with4 palm 
muted things just like the end of the pre chorus and then another harmony part

e |------------------------------------------------------------------------|
B |------------------------------------------------------------------------|
G |------------------------------------------------------------------------|
D |------------------------------------------------------------------------|
A |------------------------------------------------------------------------|
E |-0-10-12-0-10-12-0-10-12-0-10-12-10-12-13-12----------------------------|

that happnes 4 times and then the harmony kicks in with it after the 4

e |------------------------------------------------------------------------|
B |------------------------------------------------------------------------|
G |------------------------------------------------------------------------|
D |------------------------------------------------------------------------|
A |------------------------------------------------------------------------|
E |-0-16-17-0-16-17-0-16-17-0-16-17-16-17-19-17----------------------------|

then aftr 4 times of tht they do the exact same thing UP ON THE HIGH e STRING 4 TIMES

and then the solo, and after the solo yu just do the chorus twice:

Solo:

e |-12--12-12-12-12-12-12-15-12--12--12-12-12-17-18--12--12-12-12-12-12-13-|
B |------------------------------------------------------------------------|
G |------------------------------------------------------------------------|
D |------------------------------------------------------------------------|
A |------------------------------------------------------------------------|
E |------------------------------------------------------------------------|

e |-12-13-12-10-12-10-8-10-8-7-8-7-8-10-8-7-8-7-5-7-5-4-5-4-5-7-5-4-5-4----|
B |------------------------------------------------------------------------|
G |------------------------------------------------------------------------|
D |------------------------------------------------------------------------|
A |------------------------------------------------------------------------|
E |------------------------------------------------------------------------|

e |-1-4-0-1-4-1-0----12-12-12--------0-0-0-0-0-3-7-6---3-------------------|
B |------------------------------------------------------------------------|
G |------------------------------------------------------------------------|
D |------------------------------------------------------------------------|
A |------------------------------------------------------------------------|
E |------------------------------------------------------------------------|

e |-0-0-0-0-0-3-5-0--_______-0-0-0-0-0-3-7-6---3---------------------------|
B |------------------------------------------------------------------------|
G |------------------------------------------------------------------------|
D |------------------------------------------------------------------------|
A |------------------------------------------------------------------------|
E |------------------------------------------------------------------------|


e |-19-18-15-19-18-15-19-18-15-19-18-15------------------------------------|
B |-------------------------------------17---------------------------------|
G |------------------------------------------------------------------------|
D |------------------------------------------------------------------------|
A |------------------------------------------------------------------------|
E |------------------------------------------------------------------------|



e |------------------------------------------------------------------------|
B |------------------------------------------------------------------------|
G |-12-11-9-12-11-9-12-11-9-12-11-9-14-12-11-14-12-11-14-12-11-14-12-11----|
D |------------------------------------------------------------------------|
A |------------------------------------------------------------------------|
E |------------------------------------------------------------------------|

e |------------------------------------------------------------------------|
B |------------------------------------------------------------------------|
G |-16-14-12-16-14-12-16-14-12-16-14-12-14-12-11-14-12-11-14-12-11-14-12-11|
D |------------------------------------------------------------------------|
A |------------------------------------------------------------------------|
E |------------------------------------------------------------------------|

e |-15-14-12-15-14-12-15-14-12-15-14-12-17-15-14-17-15-14-17-15-14-17-15-14|
B |------------------------------------------------------------------------|
G |------------------------------------------------------------------------|
D |------------------------------------------------------------------------|
A |------------------------------------------------------------------------|
E |------------------------------------------------------------------------|


e |-19-17-15-19-17-15-19-17-15-19-17-15--19-19-19-19-20-20-20-22----24B^---|
B |------------------------------------------------------------------------|
G |------------------------------------------------------------------------|
D |------------------------------------------------------------------------|
A |------------------------------------------------------------------------|
E |------------------------------------------------------------------------|

and while tht bend is still going the pre chorus F palm mute thing happens again 8 times 
then back to the chorus!




e |------------------------------------------------------------------------|
B |------------------------------------------------------------------------|
G |------------------------------------------------------------------------|
D |-----------------7779--5557-4--7-5-5-5-5-5-5-5-4---4-4-4-4--------------|
A |-2-2-2-2-2-2-2-2-5557--3335-2--5-3-3-3-3-3-3-3-2---2-2-2-2----33--------|
E |-0-0-0-0-0-0-0-0-5557--3335-2--5-3-3-3-3-3-3-3-2---2-2-2-2----11--------|

does that twice and then does it again with a high octave to back it up:



e |------------------------------------------------------------------------|
B |------------------------------------------------------------------------|
G |------------------------------------------------------------------------|
D |-2-2-2-2-2-2-2-2-7779--5557-4--7-5-5-5-5-5-5-5-4---4-4-4-4----3---------|
A |------------------------------------------------------------------------|
E |------------------------------------------------------------------------|

in the outro the F palm mute thing is going in the background but then lead guitar is 
holding asustained F:

Guitar 1:
e |------------------------------------------------------------------------|
B |-6----------------------------------------------------------------------|
G |------------------------------------------------------------------------|
D |-3----------------------------------------------------------------------|
A |------------------------------------------------------------------------|
E |------------------------------------------------------------------------|

Guitar 2:

e |------------------------------------------------------------------------|
B |------------------------------------------------------------------------|
G |------------------------------------------------------------------------|
D |------------------------------------------------------------------------|
A |-33333---33333---33333---33333------------------------------------------|
E |-11111---11111---11111---11111------------------------------------------|

fades out........


not the best tab in the workd but hey.. :P

HOPE YOU ENJOYED THIS TAB. this band is gonna become really big some day i can tell 
theyre oonly 13 and can do this!!

go to TheFallenProduction's Channel on Youtube to listen to the songs, other tabs 
coming. THANK YOU \m/ n
Suggest correction
Give kudos to tab author, rate the tab!
1 2 3 4 5
comments
print report bad tab
guest
You may want to rate the tab now too:
select rating
Wanna post a correction for this tab? Suggest correction