Oops, an error
Loading. Please wait.

Art School tab

version 1
version 1

Whole song

  • The tuning is open G with the high d string tuned ... Show more
6,763 views 234 this week
3 commentsread comments
1 2 3 4 5
x 8
add to favorites
×
Save as Personal and add changes to this tab that will be seen only by you. Learn more ›
×
You can save this tab as Personal to edit and correct it or add notes. All changes will be seen only by you. Learn more »
launch autoscroll
font size
0
reset
how to read this tab
guitar tuner
edit
Autoscroll
slow
fast
+/-
esc
set tempo
stop
Author
Difficulty
Artist: Remo Drive
Song: Art School
Album: Greatest Hits
Tabbed by Aidan Smith

N.B.
Standard tuning. Listen to the song to get the rythm of the chords,
they're syncopated so I can't quite format them perfectly. This is my first tab,
hope you enjoy it and put it to good use!

[Main Riff]
E|------------------------|----------------|
B|------------------------|----------------|
G|-----------3------------|----------------|
D|-----1--4-----4---------|----------------|
A|--2--------------------2|-2-2-2-2-2-2-2-2|
E|-----------------2--3--4|-4-4-4-4-4-4-3-3| x3

E|------------------------|----------------|
B|------------------------|----------------|
G|-----------3------------|----------------|
D|-----1--4-----4---------|----------------|
A|--2--------------------2|-----------2-2-2|
E|-----------------2--3--4|-----------4-3-3|

B    E                         B
Look around in awe no sound
G#m7                B
A sea of bodies
E                              B
Great view feet on the ground
G#m7             B 
My label peeling
G#m7       G#m7/B     
Art school
G#m7         G#m7/B
Colored hair
G#m7     G#m7/B
Too cool
G#m7
For me but that's fair

[Interlude]
E|------------------|----------------------|
B|------------------|----------------------|
G|------------------|----------------------|
D|------------------|----------------------|
A|------------------|----------------------|
E|--9-9-9-9-9-9-9-9-|9b10-10-10-10-10-10-10| x2

B   E                B
Lay down I lie again
G#m7              B
My pants on fire
E                    G#m7/B 
Talking so confident
G#m7               B
My small empire
G#m7       G#m7/B
My band
G#m7                  G#m7/B
Somewhere in dinky
G#m7      G#m7/B
My bad
G#m7
Shoulda knew yer busy

[Main Riff]
B G x4

B    E                         B
Look around in awe no sound
G#m7                B
A sea of bodies
E                              B
Great view feet on the ground
G#m7             B 
My label peeling
G#m7       G#m7/B     
Art school
G#m7         G#m7/B
Colored hair
G#m7     G#m7/B
Too cool
G#m7
For me but that's fair

E|------------------------|----------------|
B|------------------------|----------------|
G|-----------3------------|----------------|
D|-----1--4-----4---------|----------------|
A|--2--------------------2|-----------2-2-2|
E|-----------------2--3--4|-----------4-3-3|

B   E                B
Lay down I lie again
G#m7              B
My pants on fire
E                    G#m7/B 
Talking so confident
G#m7             B
My small empire
G#m7       G#m7/B
My band
G#m7                  G#m7/B
Somewhere in dinky
G#m7      G#m7/B
My bad
G#m7
Shoulda knew yer busy

E|------------------------|----------------|
B|------------------------|----------------|
G|-----------3------------|----------------|
D|-----1--4-----4---------|----------------|
A|--2--------------------2|-2-2-2-2-2-2-2-2|
E|-----------------2--3--4|-4-4-4-4-4-4-3-3| x3

E|------------------------|----------------|
B|------------------------|----------------|
G|-----------3------------|----------------|
D|-----1--4-----4---------|----------------|
A|--2--------------------2|-----------2-2-2|
E|-----------------2--3--4|-----------4-3-3|

[Outro]

[Guitar 1] - Clean
E|------------|
B|--7---------|
G|--8---------|
D|--9---------|
A|------------|
E|------------| x8

[Guitar 2] - Distortion
E|-7-7-7-7-7-7-7-7-|-4-4-4-4-4-4-4-4|
B|-7-7-7-7-7-7-7-7-|-4-4-4-4-4-4-4-4|
G|-8-8-8-8-8-8-8-8-|-4-4-4-4-4-4-4-4|
D|-9-9-9-9-9-9-9-9-|-4-4-4-4-4-4-4-4|
A|-9-9-9-9-9-9-9-9-|-6-6-6-6-6-6-6-6|
E|-7-7-7-7-7-7-7-7-|-7-7-7-7-7-7-7-7| x4
 

 
************************************

| b  Bend
 string up

************************************

            
            
Suggest correction
Creating personal tab
Creating personal tab
You can edit any tab online and save it as your Personal.

You can edit, replace or remove any tab part or add personal notes – all changes will be seen only by you.

Personal tabs can be accessed anytime from any device, even offline.
Learn more »
comments
print report bad tab
3 comments total.
+1 reply
jacobmedeiros1 10 Apr 02, 2017 03:16 AM

👍

0 reply
jackwhite126 10 May 28, 2017 12:31 PM

solid

0 reply
aflyingkite 10 Aug 29, 2017 03:11 PM

THANK U FORTHIS

guest
You may want to rate the tab now too:
select rating
Wanna post a correction for this tab? Suggest correction