Oops, an error
Loading. Please wait.

Yer Killin Me tab

version 2
version 2

Whole song

  • I know the guitarist uses open G tuning on a coupl... Show more
  • Figured this out by listening to the record versio... Show more
2,887 views 141 this week
2 commentsread comments
1 2 3 4 5
x 8
add to favorites
×
Save as Personal and add changes to this tab that will be seen only by you. Learn more ›
×
You can save this tab as Personal to edit and correct it or add notes. All changes will be seen only by you. Learn more »
launch autoscroll
font size
0
reset
how to read this tab
guitar tuner
edit
Autoscroll
slow
fast
+/-
esc
set tempo
stop
Tuning: DGDGBE
Weird tuning, but basically just tune the low E string a step down (drop d) and tune the A a step down too (G)
The rest of the strings are in standard.
https://www.youtube.com/watch?v=6WkBeqZGwiE

[Verse]
e|------------------------------------------------------------------------|
B|------------------------------------------------------------------------|
G|--7-7-7-7-7-7-7-7--12-12-12-12-12-12------------------------------------| (x2)
D|--x-x-x-x-x-x-x-x--x-x-x-x-x-x-x--x--12-12-12-12--7-7-7-7-7-7-7-7-------|
G|--3-3-3-3-3-3-3-3--8-8-8-8-8-8-8--8--12-12-12-12--5-5-5-5-5-5-5-5-------|
D|-------------------------------------10-10-10-10--3-3-3-3-3-3-3-3-------| (Play each chord 7 times)
  '...be here anymore...'

e|---------------------------------------------------------------|
B|-----------------6---------------------------------------------|
G|--8--------------8----------11---------------------------------|
D|--7--------------7----------10------------12----10-------------|
G|--5--------------5----------8-------------10----10-------------|
D|-----------------5------------------------10----10-------------|
 'you make me want to...' '...cigarettes so I die slowly'

e|---------------------------------------------------------------|
B|---------------------------------------------------------------|
G|-8-8-8-8-8-8-8-------------------11-11-11-11-------------------| 
D|-7-7-7-7-7-7-7--8-8-8-8-8-8-8-8--10-10-10-10-------------------| (Play each chord 16 times)
G|-5-5-5-5-5-5-5--7-7-7-7-7-7-7-7--8--8--8--8--------------------|
D|----------------5-5-5-5-5-5-5-5--------------------------------|
  'anything that's... you're killing me'

e|---------------------------------------------------------------|
B|---------------------------------------------------------------|
G|--12-12-12-12--11-11-11-11-------------------------------------|
D|--10-10-10-10--10-10-10-10-------------------------------------|
G|--8--8--8---8--8--8--8--8--------------------------------------| (Play each chord 7 times)
D|---------------------------------------------------------------|
  'you're killing MEEEE'

e|----------------------------------------------------------------------------------------|
B|----------------------------------------------------------------------------------------|
G|----------------------------------------------------------------------------------------|
D|----------------------------------------------------------------------------------------|
G|----------------------------------------------------------------------------------------|
D|--12--7--5-5-5-5-5-5--12--7--5-5-5-5-5-5-5-5--12--7--5-5-5-5-5-5-5-5--12-7--5-5-5-5-5-5-|

[Verse]
e|------------------------------------------------------------------------|
B|------------------------------------------------------------------------|
G|--7-7-7-7-7-7-7-7--12-12-12-12-12-12------------------------------------| (x2)
D|--x-x-x-x-x-x-x-x--x-x-x-x-x-x-x--x--12-12-12-12--7-7-7-7-7-7-7-7-------|
G|--3-3-3-3-3-3-3-3--8-8-8-8-8-8-8--8--12-12-12-12--5-5-5-5-5-5-5-5-------|
D|-------------------------------------10-10-10-10--3-3-3-3-3-3-3-3-------| (Play each chord 7 times)
  '...be here anymore...'

e|---------------------------------------------------------------|
B|-----------------6---------------------------------------------|
G|--8--------------8----------11---------------------------------|
D|--7--------------7----------10------------12----10-------------|
G|--5--------------5----------8-------------10----10-------------|
D|-----------------5------------------------10----10-------------|
 'you make me want to...' '...fat ass blunts so I...'

e|---------------------------------------------------------------|
B|---------------------------------------------------------------|
G|-8-8-8-8-8-8-8-------------------11-11-11-11-------------------| 
D|-7-7-7-7-7-7-7--8-8-8-8-8-8-8-8--10-10-10-10-------------------| (Play each chord 16 times)
G|-5-5-5-5-5-5-5--7-7-7-7-7-7-7-7--8--8--8--8--------------------|
D|----------------5-5-5-5-5-5-5-5--------------------------------|
  'anything that's... you're killing me'

[Bridge]
e|---------------------------------------------------------------|
B|---------------------------------------------------------------|
G|------10--12--10-----------------------------------------------|
D|--12--------------13--12--10--12--10--13--12--10--10-----------| (x3)
G|---------------------------------------------------------------|
D|---------------------------------------------------------------|

e|---------------------------------------------------------------------|
B|---------------------------------------------------------------------|
G|---------------------10--12--10--------------------------------------|
D|-12h-13p-12-11----12--------------13--12--10--12--10--13--12--10--10-| 
G|---------------------------------------------------------------------|
D|---------------------------------------------------------------------|

e|---------------------------------------------------------------|
B|---------------------------------------------------------------|
G|------10--12--10-----------------------------------------------|
D|--12--------------13--12--10--12--10--13--12--10--10-----------| (x2)
G|---------------------------------------------------------------|
D|---------------------------------------------------------------|

e|------------------------------------------------------------------------------------------|
B|--11-11--11-11-11--11-11-11--11-11-11-----------------------------------------------------|
G|--12-12--12-12-12--12-12-12--12-12-12-----10--12--10--------------------------------------|
D|--10-10--10-10-10--10-10-10--10-10-10--12------------13--12--10--12--10--13--12--10--10---| (x9)
G|------------------------------------------------------------------------------------------|
D|------------------------------------------------------------------------------------------|

[Ending]
e|---------------------------------------------------------------|
B|---------------------------------------------------------------|
G|---------------------------------------------------------------|
D|-10-10-10-10-10-10--8-8-8--7-7-7--8----------------------------| 
G|---------------------------------------------------------------|
D|---------------------------------------------------------------|


************************************

| x  Dead note
| h  Hammer-on
| p  Pull-off

************************************

            
            
Suggest correction
Creating personal tab
Creating personal tab
You can edit any tab online and save it as your Personal.

You can edit, replace or remove any tab part or add personal notes – all changes will be seen only by you.

Personal tabs can be accessed anytime from any device, even offline.
Learn more »
comments
print report bad tab
2 comments total.
0 reply
DawnDusk27 175 Sep 02, 2017 04:15 PM

Chords are great but the instrumental breakdown is a little wonky

-1 reply
slacking_off 10 Sep 07, 2017 12:01 AM

chords are not great

guest
You may want to rate the tab now too:
select rating
Wanna post a correction for this tab? Suggest correction