Oops, an error
Loading. Please wait.

Madre Tierra chords

by Renacer
37 views 3 this week
no commentswrite comment
1 2 3 4 5
3 more votes to show rating
add to favorites
×
Save as Personal and add changes to this tab that will be seen only by you. Learn more ›
×
You can save this tab as Personal to edit and correct it or add notes. All changes will be seen only by you. Learn more »
launch autoscroll
font size
0
reset
transpose
0
reset
display chords
guitar tuner
edit
Autoscroll
slow
fast
+/-
esc
set tempo
stop
Strumming
There is no strumming pattern for this song yet. and get +5 IQ
bueno en este tema esta la guitarra esta afinada en Mib lo que no es
problema porque o pueden afinar sus guitarras en Mib o bien modificar
el sonido con Avrack moviendo hacia el # una unidad por mi parte si
queres que suene bien afina tu guitarra y si te da lo mismo escuchar
la voz de bertincelli mas aguda de lo normal bueno ,YO LA VOY A
TRANSCRIBIR CMODIFICANDO EL SONIDO DEL TEMA
         ACA LES VA

INTRO y


RIFF
e|-----------------------------------------------------------------|
B|-----------------------------------------------------------------|
G|-------7--------------------------10-----------------------------|
D|--7--7-7--10--10-9---10-9--9-9--7-10-----------------------------|
A|--7--7-5--10--10-9---10-9--9-9--7-8---7/8-7-------7--------------|
E|--5--5----8---8--7---8--7--7-7--5-----------8--10---8------------|

e|-----------------------------------------------------|
B|-----------------------------------------------------|
G|-------7-----------------------------7-5-7-8-7-5-----|
D|--7--7-7--10--10-9---10-9--9-9--10---7-5-7-8-7-5-----|
A|--7--7-5--10--10-9---10-9--9-9--10---5-3-5-6-5-3-----|
E|--5--5----8---8--7---8--7--7-7--8--------------------|


BASE I
e|----------------------------------|
B|----------------------------------|
G|---------------------------5------|
D|--7-7-7-7-7-7-7-7-7--7--5--5--7---|
A|--7-7-7-7-7-7-7-7-7--7--5--3--7---|
E|--5-5-5-5-5-5-5-5-5--5--3-----5---|

BASE II
e|------------------------------------------------------------|
B|------------------------------------------------------------|
G|--7-7-7-7--7--3-3-3-3-----------------------4-7-----6-9-----|
D|--7-7-7-7--7--3-3-3-3--2/3-2----3-3-3-3---5-4-7---7-6-9-----|
A|--5-5-5-5--5--1-1-1-1-------3---3-3-3-3---5-2-5---7-4-7-----|
E|--------------------------------1-1-1-1---3-------5---------|

BASE III
e|-------------------------------------------------------------|
B|-------------------------------------------------------------|
G|-------------------------------------------------------------|
D|--7-7-7----------7-7-7---------3-3-3-3-----------------------|
A|--7-7-7-7---5-7--7-7-7-7--5-7--3-3-3-3-----------3-2---0-----|
E|--5-5-5----------5-5-5---------1-1-1-1--1-0-1-0------3-------|


El TEMA

INTRO RIFF x 2 - LA

con BASE I
Puedo sentir que hoy clamara su venganza
La tierra en que el hombre derramo su ignorancia
F            G   G#    A
Sentir sus lati-idos, sentir su fuerza interior
F            G   G#      A
condenar al hombre por tanto egoismo y dolor

RIFF x 1

con BASE I
Tristeza y lagrimas hay en su tormenta
Limpia la sangre, seca tus penas
F             G   G#            A
que el sol te ilumine que la luna guarde tu soñar
F             G   G#     A                G
Despierta tus dias, horizontes sobre el ancho mar

ESTRIBILLO
con BASE II
perdon, madre tierra, perdon
Por no ver tanto amor, que al nacer has ofrecido
perdon, madre tierra, perdon
Por dejarte caer sin pensar en el olvido

PUENTE: D

con BASE III
Como escapar de esta oscura realidad
como entender que el mundo no resiste mas
Poder escuchar, en el viento sus deseos
Querer descansar del humano y su maldad

A                      F
perdon, madre tierra, perdon Por no ver
A             G          F
todo el amor, que has ofrecido al nacer

BASE DEL SOLO: ES EL RIFF PERO CON MENOS ACORDES x 2

[F E A D] x 2


F             G   G#            A
que el sol te ilumine que la luna guarde tu soñar
F             G   G#     A                G
Despierta tus dias, horizontes sobre el ancho mar

con BASE II
perdon, madre tierra, perdon
Por no ver tanto amor, que al nacer has ofrecido
perdon, madre tierra, perdon
Por dejarte caer sin pensar en el olvido

---------------------------------------------------------
BUENO, LA TRANSCRIPSION ESTA BASTANTE BIEN ESO CREO ESPERO QUE ENTIENDAN
EL SISTEMA QUE QUISE UTILIZAR CHAU
Suggest correction
Creating personal tab
Creating personal tab
You can edit any tab online and save it as your Personal.

You can edit, replace or remove any tab part or add personal notes – all changes will be seen only by you.

Personal tabs can be accessed anytime from any device, even offline.
Learn more »
Give kudos to tab author, rate the tab!
1 2 3 4 5
comments
print report bad tab
guest
Wanna post a correction for this tab? Suggest correction