Oops, an error
Loading. Please wait.

Northern Lights Bass Tab

1,155 views 1 this week
no commentswrite comment
1 2 3 4 5
please rate
add to favorites
launch autoscroll
font size
0
reset
guitar tuner
Autoscroll
slow
fast
+/-
esc
set tempo
stop
Help us to improve Ultimate-Guitar.com Take our survey!
×
Contributor
kingfish 164
----------------------------------------------------------------------------
		      NORTHERN LIGHTS - Renaissance
----------------------------------------------------------------------------

Tabbed By : Brian
e-mail: bruven76@hotmail.com

hey, my first tab!  thanks for checking it out.

*** = there are two runs(same part twice) that are probably not accurate, but close enough.

I borrowed the lyrics from the Northern Lights Chords tab...Thanks!

G|---4-2-1-----1-------|----6-4------------------|-------------------------|
D|---------4-2---4-----|--------7-6-4-6-4--------|-2----------9\-----------|
A|-2---------------2-2-|-4----------------2-2-2--|-------------------------|
E|---------------------|-------------------------|-------------------------|

G|--------------------------------|----------------------------------------|
D|*-------------------------------|----------------------------------------|
A|*-7-7-7-7--7\-------------0---2/|--7-7-7-7--7\--------------0------------|
E|-------------------2---4--------|-------------------2---4----------------|
 1.Destination,     outward bound, I turn to see the northern lights be-
 2.Horizons seem to beckon me,     learned how to cry too young so now I

G|--------------------------------|----------------------------------------|
D|--------------------------------|---------------------------------------*|
A|--7-7-7-7--7\-------------0---2/|--7-7-7-7--7\--------------0-----------*|
E|-------------------2---4--------|-------------------2---4----------------|
   -hind    the    wing.
   live      to    sing.

G|--------------------------------------------------|
D|--------------------------------------------------|
A|--7-7-7-7-7---6-6-6-6-6---4-4-4-4-4---2-2-2-0-0---|
E|--------------------------------------------------|
           The  Northern  Lights are  in  my  mind, 

G|--------------------------------------------------|
D|---------------------------------------------1----|
A|---------------------------0--2--4--0--2--4-----2/|
E|--4-4-4-4-4---2-2-2-2-2---------------------------|
         They guide    me   back     to you,

G|--------------------------------|----------------------------------------|
D|--------------------------------|----------------------------------------|
A|--7-7-7-7--7\-------------0---2/|--7-7-7-7--7\--------------------0------|
E|-------------------2---4--------|-------------------------2---4----------|
    Horizons seem to beckon me,     learned how to cry too young so now I

G|--------------------------------|----------------------------------------|
D|--------------------------------|----------------------------------------|
A|--7-7-7-7--7\-------------0---2/|--7-7-7-7--7\--------------0------------|
E|-------------------2---4--------|-------------------2---4----------------|
    live     to    sing.

G|------------------------------------|----------------------------4-------|
D|------------------------------------|------------4-----5----7------------|
A|------------------------------------|--5----7----------------------------|
E|-----2----3----5-------3----5----7--|------------------------------------|
    Though it's hard    away from you, travelling roads and passing through,

G|------------------------------------4--|---------------------------------|
D|--------------------------5----7-------|------------------7----9----11---|
A|-----3----5----7-----------------------|--5----7----9--------------------|
E|---------------------------------------|---------------------------------|
  It's not the money and it's not the fame,      I  just   can't explain,

G|--------9----11---/14----|-----------------------------------------------|
D|--12---------------------|-----------------------------4--5--7-----------|
A|-------------------------|-----8\----5---3---3---5--7--------------------|
E|-------------------------|-----------------------------------------------|
    Sometimes it's lonely,    Marking the space between the days,

G|-------------------4-----|-----------------------------------------------|
D|------4-5-7--7--5-----7--|-----------------------------4--5--7-----------|
A|--5-7--------------------|-----8\--7--5--3---3---5--7--------------------|
E|-------------------------|-----------------------------------------------|
    Early hours pass away,    I sing   to you of Northern Lights,

G|-------------------------4------|---------------------------------8---9--|
D|----------4-5-7--7----5------7--|--------9---------------11--11----------|
A|----5-7-------------------------|-----9-----9---------11-----------------|
E|--------------------------------|--7-----------7----9--------------------|
    I sing for you of northern ni - ghts.
                            ***
G|--8-------11-------------|-14-13---11------------------------------------|
D|------9------------------|------------14-13---11-------------------------|
A|-------------------------|-----------------------14-12---11--------------|
E|-------------------------|----------------------------------14-12--------|

G|----------------------------------|--------------------------------------|
D|*---------------------------------|--------------------------------------|
A|*-7-7-7-7--7\-------------0---2/--|---7-7-7-7--7\---------------0--------|
E|-------------------2---4----------|---------------------2---4------------|
 1.Past or future,  here or there,      shelter comes in words from you so
 2.I hear your voice,it comforts me, in morning dreams i take your hand, you

G|--------------------------------|----------------------------------------|
D|--------------------------------|---------------------------------------*|
A|--7-7-7-7--7\-------------0---2/|--7-7-7-7--7\--------------0-----------*|
E|-------------------2---4--------|-------------------2---4----------------|
   talk     to      me.
   walk    with     me.

G|--------------------------------------------------|
D|--------------------------------------------------|
A|--7-7-7-7-7---6-6-6-6-6---4-4-4-4-4---2-2-2-0-0---|
E|--------------------------------------------------|
           The  Northern  Lights are  in  my  mind, 

G|--------------------------------------------------|
D|---------------------------------------------1----|
A|---------------------------0--2--4--0--2--4-----2/|
E|--4-4-4-4-4---2-2-2-2-2---------------------------|
         They guide    me   back     to you,

G|--------------------------------|----------------------------------------|
D|--------------------------------|----------------------------------------|
A|--7-7-7-7--7\-------------0---2/|--7-7-7-7--7\-------------0-------------|
E|-------------------2---4--------|------------------2---4-----------------|
  Peace enfolds the still night air,  home again I look for you and

G|--------------------------------|----------------------------------------|
D|--------------------------------|----------------------------------------|
A|--7-7-7-7--7\-------------0---2/|--7-7-7-7--7\--------------0------------|
E|-------------------2---4--------|-------------------2---4----------------|
    find   you  there.
    
G|------------------------------------|----------------------------4-------|
D|------------------------------------|-------------4-----5----7-----------|
A|------------------------------------|--5-----7---------------------------|
E|-----2----3----5-------3----5----7--|------------------------------------|
       Destination      homeward now,  take the easy way,  bring me down

G|------------------------------------4--|---------------------------------|
D|--------------------------5----7-------|------------------7----9----11---|
A|-----3----5----7-----------------------|--5----7----9--------------------|
E|---------------------------------------|---------------------------------|
    Making the hard way    now   I   see,    hard to be     really free,

G|--------9----11---/14----|-----------------------------------------------|
D|--12---------------------|-----------------------------4--5--7-----------|
A|-------------------------|-----8\----5---3---3---5--7--------------------|
E|-------------------------|-----------------------------------------------|
   I'm missing you near me.    Marking the space between the days

G|-------------------4-----|-----------------------------------------------|
D|------4-5-7--7--5-----7--|---------------------------4--5--7-----------|
A|--5-7--------------------|-----8\--7--5--3---3---5--7--------------------|
E|-------------------------|-----------------------------------------------|
    Early hours pass away,    I sing   to you of Northern Lights,

G|-------------------------4------|---------------------------------8---9--|
D|----------4-5-7--7----5------7--|--------9---------------11--11----------|
A|----5-7-------------------------|-----9-----9---------11-----------------|
E|--------------------------------|--7-----------7----9--------------------|
    I sing for you of northern ni - ghts.
                            ***
G|--8-------11-------------|-----------------------------------------------|
D|------9------------------|--7-6---4--------------------------------------|
A|-------------------------|----------7-6---4-2-0--------------------------|
E|-------------------------|------------------------4-2-0------------------|

G|--------------------------------------------------|
D|*-------------------------------------------------|
A|*-7-7-7-7-7---6-6-6-6-6---4-4-4-4-4---2-2-2-0-0---|
E|--------------------------------------------------|
           The  Northern  Lights are  in  my  mind, 
                                         1.____________
G|--------------------------------------|-------------| x 2
D|--------------------------------------|-------1----*| 
A|---------------------------0--2--4--0-|-2--4-----2-*| 
E|--4-4-4-4-4---2-2-2-2-2---------------|-------------|
         They guide    me   back     to   you.
  2.___________________
G|---4-2-1-----1-------|----6-4------------------|---------------9-9-------|
D|---------4-2---4-----|--------7-6-4-6-4--------|-2-----------------11-9--|
A|-2---------------2-2-|-4----------------2-2-2--|-------------------------|
E|---------------------|-------------------------|-------------------------|
   you.
G|--------------------------------------------------|
D|*-------------------------------------------------|
A|*-7-7-7-7-7---6-6-6-6-6---4-4-4-4-4---2-2-2-0-0---|
E|--------------------------------------------------|
           The  Northern  Lights are  in  my  mind, 

G|----------------------------------------------------|
D|---------------------------------------------1-----*| (REPEAT AND FADE)
A|---------------------------0--2--4--0--2--4-----2/-*|
E|--4-4-4-4-4---2-2-2-2-2-----------------------------|
         They guide    me   back     to you.




 /  slide up
 \  slide down
Suggest correction What's this?
You can suggest a correction to this tab. Community and Mods will review your correction and vote to approve or reject it.
comments
We did not receive enough feedback on this tab! Please rate:
print report bad tab
1 2 3 4 5
I want to post or [tab]
guest
You may want to rate the tab now too:
select rating
Please do not post tabs as comments. Select "correction" instead!