Oops, an error
Loading. Please wait.

Banlieue Rouge Bass Tab

version 1
version 1

Whole song

Interactive

13 views 1 this week
no commentswrite comment
1 2 3 4 5
3 more votes to show rating
add to favorites
launch autoscroll
font size
0
reset
guitar tuner
Autoscroll
slow
fast
+/-
esc
set tempo
stop
Help us to improve Ultimate-Guitar.com Take our survey!
×
Author
Difficulty
newg [tm] 45,852
novice
----------------------------------------------------------------------------------------------------
                               Renaud - Banlieue Rouge
----------------------------------------------------------------------------------------------------

Album : Le Retour de Gérard Lambert (1981)
Tempo : 82
E-mail: gwendal.mollo@orange.fr
Tabbed by: newg    (http://profile.ultimate-guitar.com/newg/)


[Intro]
              w
G|----------------|
D|----------------|
A|----------------|
E|-----------12---|

G|-----------------------------------------|-----------------------------------------|
D|-----------------------------------------|-----------------------------------------|
A|--------------------2--4-----------------|--------------------2--4-----------------|
E|--0-----------------------2--2-----------|--4-----------------------2--2-----------| x2


[Verse]

G|-----------------------------------------|-----------------------------------------|
D|-----------------------------------------|-----------------------------------------|
A|--------------------2--4-----------------|--------------------2--4-----------------|
E|--0-----------------------2--2-----------|--4-----------------------2--2-----------| x3



G|-----------------------------------------|
D|-----------------------------------------|
A|--------------------2--4-----------------|
E|--0-----------------------2--2-----------|


[Chorus]

G|----------------------|----------------------------|----------------------------|
D|--------2-----2-------|----------------------------|----------------------------|
A|-----------------2----|----------------------------|----------------------2-----|
E|--0-------------------|--2--2-----------------2----|--4----------4--4-----------|

G|----------------------|----------------------------|----------------------------|
D|--------2-----2-------|----------------------------|----------------------------|
A|-----------------2----|----------------------------|--2-------------------------|
E|--0-------------------|--2--2-------------2-4------|----------------------------|

G|-----------------------------------------|-----------------------------------------|
D|-----------------------------------------|-----------------------------------------|
A|--------------------2--4-----------------|--------------------2--4-----------------|
E|--0-----------------------2--2-----------|--4-----------------------2--2-----------|

Suggest correction
Give kudos to tab author, rate the tab!
1 2 3 4 5
comments
print report bad tab
guest
You may want to rate the tab now too:
select rating
Wanna post a correction for this tab? Suggest correction