Oops, an error
Loading. Please wait.

Banlieue Rouge Tab

version 1
version 1

Whole song

Interactive

16 views 3 this week
no commentswrite comment
1 2 3 4 5
3 more votes to show rating
add to favorites
launch autoscroll
font size
0
reset
how to read this tab
guitar tuner
Autoscroll
slow
fast
+/-
esc
set tempo
stop
Help us to improve Ultimate-Guitar.com Take our survey!
×
Author
Difficulty
newg [tm] 45,834
novice
----------------------------------------------------------------------------------------------------
                           Renaud - Banlieue Rouge
----------------------------------------------------------------------------------------------------

Album : Le Retour de Gérard Lambert (1981)
Tempo : 82
E-mail: gwendal.mollo@orange.fr
Tabbed by: newg    (http://profile.ultimate-guitar.com/newg/)



[Intro]
GTR 1 :
              w
e|----------------|
B|----------------|
G|----------------|
D|----------------|
A|----------------|
E|-----------12---|

e|-----------------------------------------|-----------------------------------------|
B|-----------------------------------------|-----------------------------------------|
G|-----------------------------------------|-----------------------------------------|
D|-----------------------------------------|-----------------------------------------|
A|--------------------2--4-----------------|--------------------2--4-----------------|
E|--0-----------------------2--2-----------|--4-----------------------2--2-----------| x2


[Verse]
GTR 1 :
e|-----------------------------------------|-----------------------------------------|
B|-----------------------------------------|-----------------------------------------|
G|-----------------------------------------|-----------------------------------------|
D|-----------------------------------------|-----------------------------------------|
A|--------------------2--4-----------------|--------------------2--4-----------------|
E|--0-----------------------2--2-----------|--4-----------------------2--2-----------| x3


e|-----------------------------------------|
B|-----------------------------------------|
G|-----------------------------------------|
D|-----------------------------------------|
A|--------------------2--4-----------------|
E|--0-----------------------2--2-----------|


GTR 2 :
e|----------------------------|----------------------------|
B|--0--0--0--0----------------|--------------0--0--0--0----|
G|--1--1--1--1--1--1--1--1----|--1--1--1--1--1--1--1--1----|
D|--2--2--2--2--2--2--2--2----|--2--2--2--2--2--2--2--2----|
A|--2--2--2--2--2--2--2--2----|--2--2--2--2--2--2--2--2----|
E|--0--0--0--0--2--2--2--2----|--3--3--3--3--2--2--2--2----| x3

e|----------------------------|
B|--0--0--0--0----------------|
G|--1--1--1--1--1--1--1--1----|
D|--2--2--2--2--2--2--2--2----|
A|--2--2--2--2--2--2--2--2----|
E|--0--0--0--0--2--2--2--2----|


[Chorus]

GTR 2

E |----------------------|--2-----2--2--2-----2-------|
B |--0--0--0--0--0--0----|--2-----2--2--2-----2-------|
G |--1--1--1--1--1--1----|--2-----2--2--2-----2-------|
D |--2--2--2--2--2--2----|--4-----4--4--4-----4-------|
A |--2--2--2--2--2--2----|--4-----4--4--4-----4-------|
E |----------------------|--2-----2--2--2-----2-------|


--4-----4-----4-----4-----2-----2--2--2-----2-------|----------------------|
--4-----4-----4-----4-----2-----2--2--2-----2-------|--0--0--0--0--0--0----|
--4-----4-----4-----4-----2-----2--2--2-----2-------|--1--1--1--1--1--1----|
--6-----6-----6-----6-----4-----4--4--4-----4-------|--2--2--2--2--2--2----|
--6-----6-----6-----6-----4-----4--4--4-----4-------|--2--2--2--2--2--2----|
--4-----4-----4-----4-----2-----2--2--2-----2-------|----------------------|


--2-----2--2--2-----2-----4-----4-----4-----4-------|--2----|
--2-----2--2--2-----2-----4-----4-----4-----4-------|--4----|
--2-----2--2--2-----2-----4-----4-----4-----4-------|--4----|
--4-----4--4--4-----4-----6-----6-----6-----6-------|--4----|
--4-----4--4--4-----4-----6-----6-----6-----6-------|--2----|
--2-----2--2--2-----2-----4-----4-----4-----4-------|-------|

e|----------------------------|----------------------------|
B|--0--0--0--0----------------|--------------0--0--0--0----|
G|--1--1--1--1--1--1--1--1----|--1--1--1--1--1--1--1--1----|
D|--2--2--2--2--2--2--2--2----|--2--2--2--2--2--2--2--2----|
A|--2--2--2--2--2--2--2--2----|--2--2--2--2--2--2--2--2----|
E|--0--0--0--0--2--2--2--2----|--3--3--3--3--2--2--2--2----




GTR 3
E |--------------7--------7-----------7----|--5--9--------12L-----------|
B |-----------------9----------------------|--------10------------------|
G |--------------------9-------------------|-----------11---------------|
D |----------------------------------------|----------------------------|
A |----------------------------------------|----------------------------|
E |----------------------------------------|----------------------------|


--12----------11----------------9--9--9--9--0-------|
-----------9-----12----9--------9--10-10-10-10-9L---|
--------11----------11----------------11-11-11-11L--|
----------------------------------------------------|
----------------------------------------------------|
----------------------------------------------------|


--------------12-------0--12------------|
--9--9--------9--12---------------------|
--11----------------13------------------|
----------------------------------------|
----------------------------------------|
----------------------------------------|


--14-12-------14----------16-14-------16-------16---|--19---|
--------14----------------------16------------------|-------|
-----------14----------------------16---------------|-------|
----------------------------------------------------|-------|
----------------------------------------------------|-------|
----------------------------------------------------|-------|

Suggest correction
Give kudos to tab author, rate the tab!
1 2 3 4 5
comments
print report bad tab
guest
You may want to rate the tab now too:
select rating
Wanna post a correction for this tab? Suggest correction